Oops, an error
Loading. Please wait.

Las Tontas No Van Al Cielo Bass

44 views 1 this week
no commentswrite comment
1 2 3 4 5
3 more votes to show rating
add to favorites
launch autoscroll
font size
0
reset
guitar tuner
Autoscroll
slow
fast
+/-
esc
set tempo
stop
Aka esta el bajo de la cansion esto es lo k soi de las tontas
no van al cielo...
pa´ke te lo aprendas germaan!!
pa´l mejor grupo de hermosilloo! aunke no tiene nombre...


ESTO ES EL INTRO
 (8veces)

G|------------|
D|------5-5-5-|
A|--5-5-------|
E|------------|

--------------------------------------

Un segundo en esta vida puede cambiar
G|-----------------------------|
D|-----------------------------|
A|--5-5--5-5-5--5-5-5--5--5--5-|
E|-----------------------------|

     tu rumbo,
G|-----------------------------|
D|-----------------------------|
A|--2-2--2-2-2--2-2-2--2--2--2-|
E|-----------------------------|

Cortar tus alas para lentamente bajar
G|-----------------------------|
D|-----------------------------|
A|-----------------------------|
E|--3-3--3-3-3--3-3-3--3--3--3-|

tu mundo,                Mandar ese disfraz que para nada te va
G|-------------------------------------------------------|
D|----------------7-7/9-7--------------------------------|
A|--5-5--5-5-5--5---------9-7-5-5--5-5-5--5-5-5--5--5--5-|
E|-------------------------------------------------------|

     al limbo,
G|-----------------------------|
D|-----------------------------|
A|--2-2--2-2-2--2-2-2--2--2--2-|
E|-----------------------------|

Perder el miedo para nuevamente tratar
G|-----------------------------|
D|-----------------------------|
A|-----------------------------|
E|--3-3--3-3-3--3-3-3--3--3--3-|

     el punto,
G|-----------------------------|
D|-----------------------5-7-5-|
A|--5-5--5-5-5--5-5-5--5-------|
E|-----------------------------|


Nunca es tarde para comenzar,
G|----------------------------------------------|
D|--2--2-2----5--5-5----------------------------|
A|-------------------5-5--5-5-5--5-5-5--5--5--5-|
E|----------------------------------------------|

No tengas miedo de volver a amar.
G|----------------------------------------------|
D|--2--2-2----5--5-5-7-7--7-7-7--7-7-7--7--7--7-|
A|----------------------------------------------|
E|----------------------------------------------|


(CORO)

    Lo  que   quiero  es un
G|-----------------------------|
D|-----------------------------|
A|--5-5--5-5-5--5-5-5--5--5--5-|
E|-----------------------------|

    amor, Que sepa que no soy  alfrombra ni escalón,
G|--------------------------------------------------------|
D|--------------------------------------------------------|
A|-----------------------------7-7--7-7-7--7-7-7--7--7--7-|
E|--5-5--5-5-5--5-5-5--5--5--5----------------------------|

Con dignidad y convicción,
G|----------------------------|
D|-5-5--5-5-5--5-7-7--7--7--7-|
A|----------------------------|
E|----------------------------|

     Quiero un amor, Que sepa lo que
G|-----------------------------|
D|-----------------------------|
A|--5-5--5-5-5--5-5-5--5--5--5-|
E|-----------------------------|

    soy,     Que tenga un corazón, entrañas y pudor,
G|----------------------------------------------------------|
D|----------------------------------------------------------|
A|-----------------------------7-7--7-7-7--7-7-7--7--7--7-7-|
E|--5-5--5-5-5--5-5-5--5--5--5------------------------------|

Esto es lo que soy.

(INTRO)

-------------------------------------------------------

Los corazones tontos nunca podrán llegar

al cielo,
G|-----------------------------|
D|-----------------------------|
A|--2-2--2-2-2--2-2-2--2--2--2-|
E|-----------------------------|

Pues tengo la esperanza de volver a escuchar
G|-----------------------------|
D|-----------------------------|
A|-----------------------------|
E|--3-3--3-3-3--3-3-3--3--3--3-|

te quiero.
G|-----------------------------|
D|-----------------------4-5-4-|
A|--5-5--5-5-5--5-5-5--5-------|
E|-----------------------------|


Nunca es tarde para comenzar,
G|---------------------------------------------|
D|--2--2-2----5--5-5---------------7-7/9-7-----|
A|-------------------5-5--5-5-5--5---------9-7-|
E|---------------------------------------------|

No tengas miedo de volver a amar.
G|---------------------------------------------------------------|
D|-2-2--2-2-2--2-5-5--5-5-5--5-5-5--5-7-7--7-7-7--7-7-7--7--7--7-|
A|---------------------------------------------------------------|
E|---------------------------------------------------------------|


(CORO)

    Lo  que   quiero  es un
G|-----------------------------|
D|-----------------------------|
A|--5-5--5-5-5--5-5-5--5--5--5-|
E|-----------------------------|

    amor, Que sepa que no soy  alfrombra ni escalón,
G|--------------------------------------------------------|
D|--------------------------------------------------------|
A|-----------------------------7-7--7-7-7--7-7-7--7--7--7-|
E|--5-5--5-5-5--5-5-5--5--5--5----------------------------|

Con dignidad y convicción,
G|----------------------------|
D|-5-5--5-5-5--5-7-7--7--7--7-|
A|----------------------------|
E|----------------------------|

     Quiero un amor, Que sepa lo que
G|-----------------------------|
D|-----------------------------|
A|--5-5--5-5-5--5-5-5--5--5--5-|
E|-----------------------------|

    soy,     Que tenga un corazón, entrañas y pudor,
G|--------------------------------------------------------|
D|--------------------------------------------------------|
A|-----------------------------7-7--7-7-7--7-7-7--7--7--7-|
E|--5-5--5-5-5--5-5-5--5--5--5----------------------------|

Esto es lo que soy.
G|------------------------------------------|
D|--5-5--5-5-5--5---------------------------|
A|----------------5-5--5-5-5--5-5-5-5--5--5-|
E|------------------------------------------|


(SOLO)


G|----------------------------------------------------------|
D|----------------------------------------------------------|
A|------------------------------5-5--5-5-5--5-5-5--5-5-5--5-|
E|--5-5--5-5-5--5-5-5--5-5-5--5-----------------------------|


G|----------------------------------------------------------|
D|----------------------------------------------------------|
A|------------------------------5-5--5-5-5--5-5-5--5-5-5--5-|
E|--5-5--5-5-5--5-5-5--5-5-5--5-----------------------------|

G|---------------------------|
D|---------------------------|
A|---------------------------|
E|--5-5--5-5-5--5-5-5--5-5-5-|

(CORO)


Lo  que   quiero  es un
G|-----------------------------|
D|-----------------------------|
A|--5-5--5-5-5--5-5-5--5--5--5-|
E|-----------------------------|

    amor, Que sepa que no soy  alfrombra ni escalón,
G|--------------------------------------------------------|
D|--------------------------------------------------------|
A|-----------------------------7-7--7-7-7--7-7-7--7--7--7-|
E|--5-5--5-5-5--5-5-5--5--5--5----------------------------|

Con dignidad y convicción,
G|----------------------------|
D|-5-5--5-5-5--5-7-7--7--7--7-|
A|----------------------------|
E|----------------------------|

     Quiero un amor, Que sepa lo que
G|-----------------------------|
D|-----------------------------|
A|--5-5--5-5-5--5-5-5--5--5--5-|
E|-----------------------------|

    soy,     Que tenga un corazón, entrañas y pudor,
G|--------------------------------------------------------|
D|--------------------------------------------------------|
A|-----------------------------7-7--7-7-7--7-7-7--7--7--7-|
E|--5-5--5-5-5--5-5-5--5--5--5----------------------------|

Esto es lo que soy.
G|------------------------------------------|
D|--5-5--5-5-5--5---------------------------|
A|----------------5-5--5-5-5--5-5-5--5-5-5--|
E|------------------------------------------|

G|--------------------------------|
D|--------------------------------|
A|--5-3-3--3-3-3--3-3-3--3-3-3--3-|
E|--------------------------------|

No soy alfombra ni escalón,    Esto es lo que soy...
G|-----------------------------------------------|
D|-----------------------------------------------|
A|--2-2--2-2-2--2-2-2--2-2-2---2---------------5-|
E|-----------------------------------------------|


Espero k les aya serbido esto
Suggest correction
Give kudos to tab author, rate the tab!
1 2 3 4 5
comments
print report bad tab
guest
Wanna post a correction for this tab? Suggest correction