Oops, an error
Loading. Please wait.

Llegaste T Tab

14,498 views 1 this week
no commentswrite comment
1 2 3 4 5
x 4
add to favorites
launch autoscroll
font size
0
reset
how to read this tab
guitar tuner
×
Best way to learn
"Llegaste T"
Autoscroll
slow
fast
+/-
esc
set tempo
stop
Author
Difficulty
  follow
novice
Dedicated to the best Girlfriend! yep mine hehe... Marly!!!
Marly TE AMO NIÑA!!! felices 7 mesesotes mil gracias por estar conmigo
EEADMV nunca cambiaría nada de lo que contigo he aprendido y vivido!


*ACORDES* (Sin capo, afinación normal en E)

    C      F      Dm    Em     Fm     Gm      G
e|--0--||--1--||--1--||--0--||--1--||--3--||--3--|
B|--1--||--1--||--3--||--0--||--1--||--3--||--3--|
G|--0--||--2--||--2--||--0--||--1--||--3--||--4--|
D|--2--||--3--||--0--||--2--||--3--||--5--||--5--|
A|--3--||--3--||--0--||--2--||--3--||--5--||--5--|
E|--0--||--1--||--0--||--0--||--1--||--3--||--3--|

Como pueden ver son acordes básicos
y ahi les va la rola esta fácil.


C
Hundida yo estaba, ahogada en soledad

Em                                Dm(1 rasgueo)
Mi corazón lloraba de un vacío total

Fm
Todo lo intenté

F
por donde quiera te busqué

Em
Eras tú mi necesidad

C
Triste y desolada ya no pude soportar

Em
Mas desesperada era imposible de estar

Fm
Todo lo intente

F
por donde quiera te busqué

Em
Eras tú mi necesidad

F
Alce mi rostro y...


Coro

          C             F
Llegaste tú y todo cambio

          C             F
Llegaste tú la esperanza triunfó

Gm
Llegaste tú volvi a nacer


Mini solo que comienza cuando dice \'\'nacer\'\'
el * significa armónico
e|--------------------------------|
B|------------13h15p13--12--------|
G|--12/17------------------12-----|
D|----------------------------12*-|
A|--------------------------------|
E|--------------------------------|

C
Por tanto tiempo quise encontrar la solución

Em
a ese gran vacío que llevaba en mi interior

Fm              F
Todo lo intente por donde quiera te busqué

Em
Eras tú mi necesidad

F
Alce mi rostro y...


Coro (igual al pasado)

          C             F
Llegaste tú y todo cambio

          C             F
Llegaste tú la esperanza triunfó

Gm
Llegaste tú volvi a nacer


Solo largo empieza cuando dice \'\'nacer\'\'
e|----------------------------13-12-------------------------13-15--|
B|--------13---------------13-------13-------13-----------13-------|
G|--9-10------10-9---9-10---------------10-9----10-9--9-10---------|
D|-----------------------------------------------------------------|
A|-----------------------------------------------------------------|
E|-----------------------------------------------------------------|


(se repite coro)
          C             F
Llegaste tú y todo cambio

          C             F
Llegaste tú la esperanza triunfó

G
Llegaste tú volvi a nacer
Suggest correction
comments
print report bad tab
guest
You may want to rate the tab now too:
select rating
Wanna post a correction for this tab? Suggest correction