Oops, an error
Loading. Please wait.

Me Quiero Enamorar Tab

version 1
version 1

Whole song

496 views 12 this week
no commentswrite comment
1 2 3 4 5
3 more votes to show rating
add to favorites
launch autoscroll
font size
0
reset
how to read this tab
guitar tuner
Autoscroll
slow
fast
+/-
esc
set tempo
stop
Help us to improve Ultimate-Guitar.com Take our survey!
×
Hola amigos e visto esta cancion pero desde hace años noto q nadie sube la
tablatura asiq e decidido hacerla porsi a alguien le interesa :D
Escuchen la cancion para poder sacar bien los tiempo de los arpegios
todos son de manera desendente :) suerte

intro:


|--------------------|------------------|
|-------1------1-----|-------1------1---|
|-----0------0-------|-----0------0-----|
|---2------2---------|---0------0-------|
|-3------3-----------|-2------2---------|
|--------------------|------------------|

|-------------------------------------------|
|--------1---------1-------1--------1-------|
|------0--------0--------0--------0---------|
|----0--------0--------0--------0-----------|
|-------------------------------------------|
|-1---------1--------1--------1-------------|


|--------------------|------------------|-----------------------|
|-------1------1-----|-------1------1---|--------1--------------|
|-----0------0-------|-----0------0-----|------0--------0-------|
|---2------2---------|---0------0-------|----0--------0---------|
|-3------3-----------|-2------2---------|-----------------------|
|--------------------|------------------|-1---------1-----------|

|---------------------|
|-0---1---3-----------|
|---------------------|
|---------------------|
|---------2-----------|
|-3---0---------------|


Me puedo imaginar pero no se como se siente,

|--------------------|------------------|
|-------1------1-----|-------1------1---|
|-----0------0-------|-----0------0-----|
|---2------2---------|---0------0-------|
|-3------3-----------|-2------2---------|
|--------------------|------------------|

|-------------------------------------------|
|--------1---------1-------1--------1-------|
|------0--------0--------0--------0---------|
|----0--------0--------0--------0-----------|
|-------------------------------------------|
|-1---------1--------1--------1-------------|


Que el mundo se detenga cuando acaricia mi piel,

|--------------------|------------------|
|-------1------1-----|-------1------1---|
|-----0------0-------|-----0------0-----|
|---2------2---------|---0------0-------|
|-3------3-----------|-2------2---------|
|--------------------|------------------|

|-------------------------------------------|
|--------1---------1-------1--------1-------|
|------0--------0--------0--------0---------|
|----0--------0--------0--------0-----------|
|-------------------------------------------|
|-1---------1--------1--------1-------------|

Que las manos del reloj no giren si no está presente,

|--------------------|------------------|
|-------1------1-----|-------1------1---|
|-----0------0-------|-----0------0-----|
|---2------2---------|---0------0-------|
|-3------3-----------|-2------2---------|
|--------------------|------------------|

|-------------------------------------------|
|--------1---------1-------1--------1-------|
|------0--------0--------0--------0---------|
|----0--------0--------0--------0-----------|
|-------------------------------------------|
|-1---------1--------1--------1-------------|

Dicen que es tan suave, dulce y fluye como miel

|--------------------|------------------|
|-------1------1-----|-------1------1---|
|-----0------0-------|-----0------0-----|
|---2------2---------|---0------0-------|
|-3------3-----------|-2------2---------|
|--------------------|------------------|

|-------------------------------------------|
|--------1---------1-------1--------1-------|
|------0--------0--------0--------0---------|
|----0--------0--------0--------0-----------|
|-------------------------------------------|
|-1---------1--------1--------1-------------|


Cuanto tiempo tardara ¿O no es para todos?

|--------------------|------------------|
|-------1------1-----|-------1------1---|
|-----0------0-------|-----0------0-----|
|---2------2---------|---0------0-------|
|-3------3-----------|-2------2---------|
|--------------------|------------------|

|-------------------------------------------|
|--------1---------1-------1--------1-------|
|------0--------0--------0--------0---------|
|----0--------0--------0--------0-----------|
|-------------------------------------------|
|-1---------1--------1--------1-------------|

¿Por qué de mí se esconderá?

|--------------------|------------------|
|-------1------1-----|-------1------1---|
|-----0------0-------|-----0------0-----|
|---2------2---------|---0------0-------|
|-3------3-----------|-2------2---------|
|--------------------|------------------|

|-------------------------------------------|
|--------1---------1-------1--------1-------|
|------0--------0--------0--------0---------|
|----0--------0--------0--------0-----------|
|-------------------------------------------|
|-1---------1--------1--------1-------------|

¿Dónde está?

|---------------------------------------|
|---------0--------1----------1-------1-|
|-------0--------0----------0-------0---|
|-----0--------0----------0-------0-----|
|------------0---------2--------2-------|
|-3-------------------------------------|

Quiero amar y sin pensar entregarlo todo

|--------------|    |---------------|
|---------6----|    |--------0------|
|-------0------|x2  |------0--------|x2
|-----7--------|    |----0----------|
|---8----------|    |---------------|
|--------------|    |-3-------------|

|---------------|    |--------------|
|-------1-------|    |-------1------|
|-----2---------|x2  |-----0--------|x2
|---2-----------|    |---2----------|
|-0-------------|    |-3------------|
|---------------|    |--------------|

Quiero que mi corazón intercambie su lugar

|--------------|    |---------------|
|---------6----|    |--------0------|
|-------0------|x2  |------0--------|x2
|-----7--------|    |----0----------|
|---8----------|    |---------------|
|--------------|    |-3-------------|

|---------------|    |--------------|
|-------1-------|    |-------1------|
|-----2---------|x2  |-----0--------|x2
|---2-----------|    |---2----------|
|-0-------------|    |-3------------|
|---------------|    |--------------|

                     con el de alguien especial
|---------------------------|-------------------|
|----------6-----------6----|--------0------0---|
|-------0-----------0-------|------0------0-----|
|----7-----------7----------|----0------0-------|
|-8-----------8-------------|-------------------|
|---------------------------|-3-------3---------|

|-------------------------------|
|--------1-------1-------1------|
|------0-------0-------0--------|
|----2-------0-------0----------|
|--3-------2-------0------------|
|-------------------------------|

             Quiero despertar, te quiero encontrar y me quiero enamorar

|-----------------------------------------------------
|------------0--------3---------3----------3--------3-
|---------0---------0---------0----------0--------0---
|------0----------0---------0----------0--------0-----
|-----------------------------------------------------
|--3-----------2----------2---------2--------2--------

|----------------------------------------|
|--------1-------1---------0--------0----|
|------0-------0---------0--------0------|
|----0-------0---------0--------0--------|
|----------------------------------------|
|-1--------1--------3---------3----------|


intro x2


No quiero imaginar, quiero saber cómo se siente
|--------------------|------------------|
|-------1------1-----|-------1------1---|
|-----0------0-------|-----0------0-----|
|---2------2---------|---0------0-------|
|-3------3-----------|-2------2---------|
|--------------------|------------------|

|-------------------------------------------|
|--------1---------1-------1--------1-------|
|------0--------0--------0--------0---------|
|----0--------0--------0--------0-----------|
|-------------------------------------------|
|-1---------1--------1--------1-------------|

Que un beso me desnude el alma y me hormigueen los pies
|--------------------|------------------|
|-------1------1-----|-------1------1---|
|-----0------0-------|-----0------0-----|
|---2------2---------|---0------0-------|
|-3------3-----------|-2------2---------|
|--------------------|------------------|

|-------------------------------------------|
|--------1---------1-------1--------1-------|
|------0--------0--------0--------0---------|
|----0--------0--------0--------0-----------|
|-------------------------------------------|
|-1---------1--------1--------1-------------|

Sus brazos ser mi abrigo en los fríos de diciembre
|--------------------|------------------|
|-------1------1-----|-------1------1---|
|-----0------0-------|-----0------0-----|
|---2------2---------|---0------0-------|
|-3------3-----------|-2------2---------|
|--------------------|------------------|

|-------------------------------------------|
|--------1---------1-------1--------1-------|
|------0--------0--------0--------0---------|
|----0--------0--------0--------0-----------|
|-------------------------------------------|
|-1---------1--------1--------1-------------|

Y en los días de verano juntos ver el sol nacer
|--------------------|------------------|
|-------1------1-----|-------1------1---|
|-----0------0-------|-----0------0-----|
|---2------2---------|---0------0-------|
|-3------3-----------|-2------2---------|
|--------------------|------------------|

|-------------------------------------------|
|--------1---------1-------1--------1-------|
|------0--------0--------0--------0---------|
|----0--------0--------0--------0-----------|
|-------------------------------------------|
|-1---------1--------1--------1-------------|


Cuanto tiempo tardara ¿O no es para todos?
|--------------------|------------------|
|-------1------1-----|-------1------1---|
|-----0------0-------|-----0------0-----|
|---2------2---------|---0------0-------|
|-3------3-----------|-2------2---------|
|--------------------|------------------|

|-------------------------------------------|
|--------1---------1-------1--------1-------|
|------0--------0--------0--------0---------|
|----0--------0--------0--------0-----------|
|-------------------------------------------|
|-1---------1--------1--------1-------------|

¿Por qué de mí se esconderá?
|--------------------|------------------|
|-------1------1-----|-------1------1---|
|-----0------0-------|-----0------0-----|
|---2------2---------|---0------0-------|
|-3------3-----------|-2------2---------|
|--------------------|------------------|

|-------------------------------------------|
|--------1---------1-------1--------1-------|
|------0--------0--------0--------0---------|
|----0--------0--------0--------0-----------|
|-------------------------------------------|
|-1---------1--------1--------1-------------|

¿Dónde está?
|---------------------------------------|
|---------0--------1----------1-------1-|
|-------0--------0----------0-------0---|
|-----0--------0----------0-------0-----|
|------------0---------2--------2-------|
|-3-------------------------------------|

Quiero amar y sin pensar entregarlo todo
|--------------|    |---------------|
|---------6----|    |--------0------|
|-------0------|x2  |------0--------|x2
|-----7--------|    |----0----------|
|---8----------|    |---------------|
|--------------|    |-3-------------|

|---------------|    |--------------|
|-------1-------|    |-------1------|
|-----2---------|x2  |-----0--------|x2
|---2-----------|    |---2----------|
|-0-------------|    |-3------------|
|---------------|    |--------------|

Quiero que mi corazón intercambie su lugar
|--------------|    |---------------|
|---------6----|    |--------0------|
|-------0------|x2  |------0--------|x2
|-----7--------|    |----0----------|
|---8----------|    |---------------|
|--------------|    |-3-------------|

|---------------|    |--------------|
|-------1-------|    |-------1------|
|-----2---------|x2  |-----0--------|x2
|---2-----------|    |---2----------|
|-0-------------|    |-3------------|
|---------------|    |--------------|


                     con el de alguien especial

|---------------------------|-------------------|
|----------6-----------6----|--------0------0---|
|-------0-----------0-------|------0------0-----|
|----7-----------7----------|----0------0-------|
|-8-----------8-------------|-------------------|
|---------------------------|-3-------3---------|

|-------------------------------|
|--------1-------1-------1------|
|------0-------0-------0--------|
|----2-------0-------0----------|
|--3-------2-------0------------|
|-------------------------------|


                Quiero despertar, te quiero encontrar y me quiero enamorar
|-----------------------------------------------------|
|------------0--------3---------3----------3--------3-|
|---------0---------0---------0----------0--------0---|
|------0----------0---------0----------0--------0-----|
|-----------------------------------------------------|
|--3-----------2----------2---------2--------2--------|

|----------------------------------------|
|--------1-------1---------0--------0----|
|------0-------0---------0--------0------|
|----0-------0---------0--------0--------|
|----------------------------------------|
|-1--------1--------3---------3----------|


intro x4


Quiero amar y sin pensar entregarlo todo
|--------------|    |---------------|
|---------6----|    |--------0------|
|-------0------|x2  |------0--------|x2
|-----7--------|    |----0----------|
|---8----------|    |---------------|
|--------------|    |-3-------------|

|---------------|    |--------------|
|-------1-------|    |-------1------|
|-----2---------|x2  |-----0--------|x2
|---2-----------|    |---2----------|
|-0-------------|    |-3------------|
|---------------|    |--------------|

Quiero que mi corazón intercambie su lugar
|--------------|    |---------------|
|---------6----|    |--------0------|
|-------0------|x2  |------0--------|x2
|-----7--------|    |----0----------|
|---8----------|    |---------------|
|--------------|    |-3-------------|

|---------------|    |--------------|
|-------1-------|    |-------1------|
|-----2---------|x2  |-----0--------|x2
|---2-----------|    |---2----------|
|-0-------------|    |-3------------|
|---------------|    |--------------|
                    con el de alguien especial

|---------------------------|-------------------|
|----------6-----------6----|--------0------0---|
|-------0-----------0-------|------0------0-----|
|----7-----------7----------|----0------0-------|
|-8-----------8-------------|-------------------|
|---------------------------|-3-------3---------|

|-------------------------------|
|--------1-------1-------1------|
|------0-------0-------0--------|
|----2-------0-------0----------|
|--3-------2-------0------------|
|-------------------------------|

                  Quiero despertar, te quiero encontrar y me quiero enamorar
|-----------------------------------------------------|
|------------0--------3---------3----------3--------3-|
|---------0---------0---------0----------0--------0---|
|------0----------0---------0----------0--------0-----|
|-----------------------------------------------------|
|--3-----------2----------2---------2--------2--------|

|----------------------------------------|
|--------1-------1---------0--------0----|
|------0-------0---------0--------0------|
|----0-------0---------0--------0--------|
|----------------------------------------|
|-1--------1--------3---------3----------|


|--------------------------------------|
|-----------1--------1-----------1-----|
|--------0---------0----------0--------|
|-----2----------0---------0-----------|
|--3----------2---------0--------------|
|--------------------------------------|


                   Quiero despertar, te quiero encontrar y me quiero enamorar
|-----------------------------------------------------|
|------------0--------3---------3----------3--------3-|
|---------0---------0---------0----------0--------0---|
|------0----------0---------0----------0--------0-----|
|-----------------------------------------------------|
|--3-----------2----------2---------2--------2--------|

|----------------------------------------|
|--------1-------1---------0--------0----|
|------0-------0---------0--------0------|
|----0-------0---------0--------0--------|
|----------------------------------------|
|-1--------1--------3---------3----------|


|--------------------------------------|
|-----------1--------1-----------1-----|
|--------0---------0----------0--------|
|-----2----------0---------0-----------|
|--3----------2---------0--------------|
|--------------------------------------|

              Quiero despertar, te quiero encontrar y me quiero enamorar

|-----------------------------------------------------
|------------0--------3---------3----------3--------3-
|---------0---------0---------0----------0--------0---
|------0----------0---------0----------0--------0-----
|-----------------------------------------------------
|--3-----------2----------2---------2--------2--------

|---------------------------------------0-|
|--------1-------1---------0--------0---1-|
|------0-------0---------0--------0-----0-|
|----0-------0---------0--------0-------2-|
|---------------------------------------3-|
|-1--------1--------3---------5---------0-|

Dedico esta rola ami novia Dalia T Amo* [3
Suggest correction
Give kudos to tab author, rate the tab!
1 2 3 4 5
comments
print report bad tab
guest
You may want to rate the tab now too:
select rating
Wanna post a correction for this tab? Suggest correction