Oops, an error
Loading. Please wait.

Ive Got A Feeling tab

version 1
version 1

Whole song

332 views 1 this week
no commentswrite comment
1 2 3 4 5
2 more votes to show rating
add to favorites
×
Save as Personal and add changes to this tab that will be seen only by you. Learn more ›
×
You can save this tab as Personal to edit and correct it or add notes. All changes will be seen only by you. Learn more »
launch autoscroll
font size
0
reset
how to read this tab
guitar tuner
edit
Autoscroll
slow
fast
+/-
esc
set tempo
stop
Jessica Pratt - I've got a feeling


Capo IV



Annotation:
play the patterns freely, important is the bass on 1, 2 1/2 and 4.




INTRO

-----------------.-----------------|
---0-----0-------.-----------------|
-3-----3-----3---.-2---2-----2-----|
-----2-----2---2-.---------2-----2-|
-0-----0-----0---.-0-----0-----0---|
-----------------.-----------------|   repeat (repeat 2nd measure before 1st verse)



VERSE

(-----------------      -----------------      -----------------      -----------------      )
(-------3---------      -------3-----3---      -------0-----0---      -------0---------      )
(-----5-----5-----      -----4---4-----4-      -----0---0-----0-      -----2-----2-----      )
(---2-----------2-      ---2-------2-----      ---0-------0-----      ---2-----------2-      )  X2
(-0-----0-----0---  x2  -3-----3-----3---  x2  ------(0)---(0)--  x2  -0-----0-----0---  x2  )
(-----------------      -----------------      -0-----5-----5---      -----------------      )




CHORUS
                                                                     
(-------4----------     -------0-----0---      )      
(-----2-----2------     -----3---3-----3-      )     
(---2------------2-     ---2-------2-----      )     
(-------2-----2----     -------2-----2---      )  X2 
(-0----------------  x2 -2---------------  x2  )     
(------------------     -----------------      )      




                                    (3rd measure x2)

-------0-----0---.-------0-----0---.-------0---------|
-----3---3-----3-.-----1---1-----1-.-----------1-----|
---2-------2-----.---0-------0-----.---0-----------0-|
-3-----3-----3---.-------2-----2---.-----0-------0---|
-----------------.-3---------------.-----------------|
-----------------.-----------------.-3-------3-------|


--------0-----0---.-------0-----0---|
-2---2----2-----0-.-----0---0-----0-|
---2--------2-----.---0-------0-----|
--------2-----2---.-----------------|
-0----------------.-0-----0-----0---|  x3, then repeat 2ND MEASURE x3    
------------------.-----------------|


REPEAT INTRO


REPEAT VERSE same as 1st, except:


ENDING 2ND VERSE:


--------0-----0---.-------0-----0---|
-2---2----2-----0-.-----0---0-----0-|
---2--------2-----.---0-------0-----|
--------2-----2---.-----------------|
-0----------------.-0-----0-----0---|  x3, then repeat 1ST MEASURE x3    
------------------.-----------------|

ENDING

-------0---------.-------2-----2---.-----------------.-------0---------|
-1---1-----1-----.-----3---3-----3-.---------0-------.-----2---2-------|
---2-----------2-.---2-------2-----.-----0-----0---0-.---1-------1---1-|
-------2-----2---.-------0-----0---.---0---------0---.-------2-----2---|
-0---------------.-0---------------.-------2---------.-0---------------|   x6 (1st time repeat last measure)
-----------------.-----------------.-3---------------.-----------------|

Verse:

When I look into your eyes
I've got a feeling
You're just a lonely ride
With both ends burning tonight

Chorus:

Well here I am, another thousandth sister to the night
And mouthing tricks into my ears, the cigarette you light
Is burning out to the deep
Like me


Verse: 


When I see you again
I've got a feeling
Our wires crossed end-to-end
And you're reeling the girl in again

Chorus:

Well here I am, another thousandth sister to the night
And mouthing tricks into my ears, the cigarette you light
Is curling up from beneath
Like me


Ending:


Girl, won't you dance for me?
Girl, won't you dance for me?


Suggest correction
Creating personal tab
Creating personal tab
You can edit any tab online and save it as your Personal.

You can edit, replace or remove any tab part or add personal notes – all changes will be seen only by you.

Personal tabs can be accessed anytime from any device, even offline.
Learn more »
Give kudos to tab author, rate the tab!
1 2 3 4 5
comments
print report bad tab
guest
You may want to rate the tab now too:
select rating
Wanna post a correction for this tab? Suggest correction