Oops, an error
Loading. Please wait.

La Premisa Del Despiadado Angel Chords

37 views 1 this week
no commentswrite comment
1 2 3 4 5
3 more votes to show rating
add to favorites
launch autoscroll
font size
0
reset
transpose
0
reset
simplify chords
display chords
guitar tuner
Autoscroll
slow
fast
+/-
esc
set tempo
stop
Help us to improve Ultimate-Guitar.com Take our survey!
×
Esta interpretacion o version latinoamericana
de "Zankoku na tenshi no TE-ZE" interpretada originalmente
por Megumi Hayashibara y pertenece a la
Serie "Neo Genesis Evangelion"

Toquen el tema con cejilla

LA PEMISA DEL DESPIADADO ANGEL

Cm    Fm   Bb             Eb
Así como un despiadado ángel
Cm   Fm       Bb        Cm
joven mesias llegas en leyenda

Intro
Cm Fm Bb Eb
Cm Fm Bb Cm

(o bien pueden hacerla instrumental)
e||------------6----------6-8----66---66-8-
B||----6---666---9-868--8----6------8------
G||5-8---8---------------------8-----------
D||----------------------------------------
A||----------------------------------------
E||----------------------------------------

e||----------------6----------6-8----66---66-8
B||--------6---666---9-868--8----6------8-----
G||--555-8---8---------------------8----------
D||-------------------------------------------
A||-------------------------------------------
E||-------------------------------------------

Eb         Bb
Ahora el viento azul
  Cm      Bb          Ab
golpea en la puerta de tu corazón
  Bb                   Eb     Cm
solamente estas contemplandome así
  Dm        F/G
con esa sonrisa tan vivaz

Eb           Bb
Algo enternecedor
  Cm     Bb      Ab
es lo que tu buscas con obsecación
  Bb         Eb     Cm
y no puedes ver tu destino así
 Dm           F/G
con ojos tan inocentes


Ab          Gm      Cm
Yo creo que algún día podrás
Fm       B          Eb
darte cuenta que en tu espalda
Ab         Gm    Cm
llevas las alas
Dm                F/G
que rumbo al lejano futuro te llevaran


Cm      Fm         Bb        Eb
La premisa del despiadado angel
Cm      Fm         Bb        Eb
a travéz del portal de tu alma volara
Cm      Fm         Bb        Eb
si por solo un instante de tibio dolor
Cm      Fm         Bb        Eb
dentro de tus recuerdos mencionaras
Cm      Fm         Bb        Eb
abrazando este cielo resplandeceras
Cm  Fm           Bb        C
joven mesias llegas en leyenda

Intro
Cm Fm Bb Eb
Cm Fm Bb Cm

(o tambien la pueden hacerla instrumental)
e||------------6----------6-8-----------
B||----6---666---9-868--8----6------6---
G||5-8---8---------------------87757-88-
D||-------------------------------------
A||-------------------------------------
E||-------------------------------------

e||------------6----------6-8----66---66-8-
B||----6---666---9-868--8----6------8------
G||5-8---8---------------------8-----------
D||----------------------------------------
A||----------------------------------------
E||----------------------------------------

Eb         Bb
Por un tiempo inmemorial
Cm      Bb          Ab
durmiendo en la cuna de mi amor
Bb                   Eb     Cm
la mañana vendrá si eres llamado
Dm       F/G
por el mensajero de sueños

Eb         Bb
Puedes ver tu nuca brillar
Cm      Bb          Ab
la luna refleja en el cuello su luz
Bb                   Eb     Cm
en el mundo entero deteniendo el tiempo
Dm       F/G
deseo encerrarlos pero...

Ab          Gm     Cm
Si el destinado encuentro
Fm       Bb         Eb
entre dos personas tiene una razón
Ab         Gm    Cm
pienso que es una biblia
Dm                F/G
para conocer lo que es libertad

Cm      Fm         Bb        Eb
La premisa del despiadado angel
Cm      Fm         Bb        Eb
tu tristeza debiera entonces empezar
Cm      Fm         Bb        Eb
aferrandote a esa forma de vivir
Cm      Fm         Bb        Eb
cuando de ese sueño despertaste
Cm      Fm         Bb        Eb
el que mas brilla y con su luz propia eres tu
Cm  Fm           Bb        C
joven mesias llegas en leyenda

Ab           Gm            Cm
La historia es creada por las personas
Fm        Bb         Eb
que van tejiendo el amor
Ab         Gm     Cm
aunque jamas sere diosa
Dm                F/G
o un ser divino se que viviré

La premisa del despiadado angel a travéz
del portal de tu alma volara
si por solo un instante de tibio dolor
dentro de tus recuerdos mencionaras
abrazando este cielo resplandeceras
joven mesias llegas en leyenda


************************************************************
Dedicado a mi buen amigo "EL CABEZA" RONM....
Espero que les guste y que les sirva este aporte....
cuaquier consulta o critica sera bien recibida.....
Suggest correction
Give kudos to tab author, rate the tab!
1 2 3 4 5
comments
print report bad tab
guest
You may want to rate the tab now too:
select rating
Wanna post a correction for this tab? Suggest correction