Oops, an error
Loading. Please wait.

Domino Tab

version 2
version 2

Whole song

Interactive

12,460 views 9 this week
no commentswrite comment
1 2 3 4 5
1 last vote to show rating
add to favorites
launch autoscroll
font size
0
reset
how to read this tab
guitar tuner
×
Best way to learn
"Domino"
Autoscroll
slow
fast
+/-
esc
set tempo
stop
Author
[Intro]
e|--------3--------|--------3--------|
B|--------3--------|--------5--------|
G|--------4--------|--------5--------|
D|--------5--------|--------5--------|
A|--------5--------|--------3--------|
E|--------3--------|--------0--------|
          G                 C

[Verse]
e|--------3--------|--------3--------|
B|--------3--------|--------5--------|
G|--------4--------|--------5--------|
D|--------5--------|--------5--------|
A|--------5--------|--------3--------|
E|--------3--------|--------0--------|
          G                 C

[Bridge]
e|--------8--------|--------3--------|--------7--------|--------5--------|
B|--------8--------|--------3--------|--------8--------|--------5--------|
G|--------9--------|--------3--------|--------7--------|--------6--------|
D|--------10-------|--------4--------|--------9--------|--------7--------|
A|--------10-------|--------5--------|--------7--------|--------7--------|
E|--------8--------|--------3--------|--------0--------|--------5--------|
          C                 G7                E7                A

[Chorus]
e|--------3--------|--------0--------|--------0--------|--------0--------|
B|--------3--------|--------1--------|--------0--------|--------1--------|
G|--------0--------|--------2--------|--------0--------|--------0--------|
D|--------2--------|--------2--------|--------2--------|--------2--------|
A|--------3--------|--------0--------|--------2--------|--------3--------|
E|--------0--------|--------0--------|--------0--------|--------0--------|
          C9                Am                Em                C

[Post-Chorus]
e|--------0--------|--------0--------|--------7--------|--------5--------|
B|--------8--------|--------5--------|--------8--------|--------5--------|
G|--------9--------|--------6--------|--------7--------|--------6--------|
D|--------10-------|--------7--------|--------9--------|--------7--------|
A|--------10-------|--------7--------|--------7--------|--------7--------|
E|--------0--------|--------0--------|--------0--------|--------5--------|

[Bridge]
e|--------8--------|--------3--------|--------7--------|--------5--------|
B|--------8--------|--------3--------|--------8--------|--------5--------|
G|--------9--------|--------3--------|--------7--------|--------6--------|
D|--------10-------|--------4--------|--------9--------|--------7--------|
A|--------10-------|--------5--------|--------7--------|--------7--------|
E|--------8--------|--------3--------|--------0--------|--------5--------|
          C                 G7                E7                A

[Outro]
e|--------3--------|--------0--------|--------0--------|--------0--------|
B|--------3--------|--------1--------|--------0--------|--------1--------|
G|--------0--------|--------2--------|--------0--------|--------0--------|
D|--------2--------|--------2--------|--------2--------|--------2--------|
A|--------3--------|--------0--------|--------2--------|--------3--------|
E|--------0--------|--------0--------|--------0--------|--------0--------|
          C9                Am                Em                C
Suggest correction
Give kudos to tab author, rate the tab!
1 2 3 4 5
comments
print report bad tab
guest
You may want to rate the tab now too:
select rating
Wanna post a correction for this tab? Suggest correction