Oops, an error
Loading. Please wait.

Pilares De Cristal Tab

47 views 1 this week
no commentswrite comment
1 2 3 4 5
3 more votes to show rating
add to favorites
launch autoscroll
font size
0
reset
how to read this tab
guitar tuner
Autoscroll
slow
fast
+/-
esc
set tempo
stop
Help us to improve Ultimate-Guitar.com Take our survey!
×
ESTA CANCION LOS TONOS SON LOS ORIGINALES DEL CD
SE LA DEDICO A TODOS LOS FANS DE JESSIE MORALES.
ALGUNA DUDA EMAIL ME. ESPERO LES GUSTE

Intro:G#, D#, A#, D#

e-8-10-11-13-11-10-11-8,-8-10-11-13-11-10-11-----------
B-------------------------------------------11,-11-9-8-
G------------------------------------------------------
D------------------------------------------------------
A------------------------------------------------------
E------------------------------------------------------

e---------8---------8-11---------------------
B-11-9-11---9,-9-11------11-9-8--------------
G--------------------------------------------
D--------------------------------------------
A--------------------------------------------
E--------------------------------------------
                                       A#7          D#
Desde el momento en que tus ojos a los míos se miraron
                                       A#7        D#
Desde del momento se embriagaron a las cosas del amor
                     G#                           D#
Desde allí fue mi destino desde allí cambio mi suerte
                     A#7                    D#
solo dios, solo la muerte me separan de tu amor

                    G#                     D#
Ay que ojitos de morena pa mandarlos retratar
                  A#7                      D#
pa ponerlos en vidrieras en ?Pilares de Cristal?


MELODIA: G#, D#, A#, D#

e-8-10-11-13-11-10-11-8,-8-10-11-13-11-10-11-----------
B-------------------------------------------11,-11-9-8-
G------------------------------------------------------
D------------------------------------------------------
A------------------------------------------------------
E------------------------------------------------------

e---------8---------8-11---------------------
B-11-9-11---9,-9-11------11-9-8--------------
G--------------------------------------------
D--------------------------------------------
A--------------------------------------------
E--------------------------------------------
                                       A#7          D#
Desde el momento en que tus ojos a los míos se miraron
                                       A#7        D#
Desde del momento se embriagaron a las cosas del amor
                     G#                           D#
Desde allí fue mi destino desde allí cambio mi suerte
                     A#7                    D#
solo dios, solo la muerte me separan de tu amorr

                   G#                         D#
Eres linda eres bonita no eres alta no eres baja
                      A#7                         D#
para hacer ángel del cielo las alas te hicieron falta


MELODIA: G#, D#, A#, D#

e-8-10-11-13-11-10-11-8,-8-10-11-13-11-10-11-----------
B-------------------------------------------11,-11-9-8-
G------------------------------------------------------
D------------------------------------------------------
A------------------------------------------------------
E------------------------------------------------------

e---------8---------8-11---------------------
B-11-9-11---9,-9-11------11-9-8--------------
G--------------------------------------------
D--------------------------------------------
A--------------------------------------------
E--------------------------------------------
                                       A#7          D#
Desde el momento en que tus ojos a los míos se miraron
                                       A#7        D#
Desde del momento se embriagaron a las cosas del amor
                     G#                           D#
Desde allí fue mi destino desde allí cambio mi suerte
                     A#7                    D#
solo dios, solo la muerte me separan de tu amor

                   G#                       D#
En el medio de la mar tengo una balanza de oro
             A#7                         D#
Pa pesar los amores de una joven que yo adoro??..

D#: RE SOSTENIDO MAYOR
A#7: LA SOSTENIDO 7
G#: SOL SOSTENIDO MAYOR
Suggest correction
Give kudos to tab author, rate the tab!
1 2 3 4 5
comments
print report bad tab
guest
You may want to rate the tab now too:
select rating
Wanna post a correction for this tab? Suggest correction