Oops, an error
Loading. Please wait.

Te Propongo Una Mentira Chords

18 views 1 this week
no commentswrite comment
1 2 3 4 5
3 more votes to show rating
add to favorites
launch autoscroll
font size
0
reset
transpose
0
reset
display chords
guitar tuner
Autoscroll
slow
fast
+/-
esc
set tempo
stop
Help us to improve Ultimate-Guitar.com Take our survey!
×
      G#
Te propongo una mentira
         Cm              Fm
que me digas que me quieres
        D#         C#
que me amas, me deceas
       D#             Fm        D#  
y que sin mi amor te mueres.

ACOMPANAMIENTO:G#, Cm, C#, A#m, D# (2)

MELODIA
e---------------------------------------------------------------
B---------------------------------------------------------------
G-------------------------8-10-10-10-10-10-12-13-13-15-12-10-12-
D-----------11-10-13-13-5---------------------------------------
A-6-6-6-8-6-----------------------------------------------------
E---------------------------------------------------------------

e--------------------------|-----------------------------
B--------------------------|-----------------------------
G--------------------------|-----------------------------
D-----------11-10-8-6-13-5-|-5-6-6-6-6-6-8-10-10-11-8----
A-6-6-6-8-6----------------|-----------------------------
E--------------------------|-----------------------------

Te propongo una mentira................
       
      G#
Dicen que de amor se mueren
         Cm                 Fm
pues yo aqui yo ya estoy muerto
       D#             Cm
tus caprichos mis desvelos
       D#                 F#      D#
por todo lo que me has echo.

                  G#        Cm
Pero no olvides nunca, mas nunca
      C#                    A#m     D#
que amores tan buenos muy poco se dan
                         G#           Cm
pero este que hoy te ofresco, te ofresco
    C#                A#m             D#
si no lo aprovechas otra si lo hara.


Dicen que de amor se mueren.............

ACOMPANAMIENTO:G#, Cm, C#, A#m, D# (2)
e--------------------------|-----------------------------
B--------------------------|-----------------------------
G--------------------------|-----------------------------
D-----------11-10-8-6-13-5-|-5-6-6-6-6-6-8-10-10-11-8----(2 VECES)
A-6-6-6-8-6----------------|-----------------------------
E--------------------------|-----------------------------

Pero no olvides nunca, mas nunca........
      G#
Dicen que de amor se mueren
         Cm                 Fm
pues yo aqui yo ya estoy muerto
        D#             Cm
tus desprecios mis desvelos
       D#             F#      D#
por eso yo ya estoy muerto.

FINAL:G#, Cm, C#, A3m, D#.(2)

e--------------------------|------------------------------
B--------------------------|------------------------------
G--------------------------|------------------------------
D-----------11-10-8-6-13-5-|-5-6-6-6-6-6-8-10-10-11-8-----
A-6-6-6-8-6----------------|------------------------------
E--------------------------|------------------------------

e--------------------------|------------------------------
B--------------------------|------------------------------
G--------------------------|------------------------------
D-----------11-10-8-6-13-5-|-5-6-6-6-6-6-8-10-10-11-8-6-13
A-6-6-6-8-6----------------|------------------------------
E--------------------------|------------------------------

ESTA CANCION ESTA EN EL TONO QUE ESTA EN EL CD ESPERO LES GUSTE.
Suggest correction
Give kudos to tab author, rate the tab!
1 2 3 4 5
comments
print report bad tab
guest
You may want to rate the tab now too:
select rating
Wanna post a correction for this tab? Suggest correction