Oops, an error
Loading. Please wait.

Conqueror Tab

by Jesu
43 views 3 this week
no commentswrite comment
1 2 3 4 5
3 more votes to show rating
add to favorites
launch autoscroll
font size
0
reset
how to read this tab
guitar tuner
Autoscroll
slow
fast
+/-
esc
set tempo
stop
Help us to improve Ultimate-Guitar.com Take our survey!
×
Author
Difficulty
Tuning
novice
A E A D F# B
About this tab version
Correct tuning from watching live videos. Structure at the end. Was this info helpful? Yes No
Artist: Jesu
Song: Conqueror
Album: Conqueror

Tuning: ADGCEa (A standard)


[Intro/Main Riff]

  1 + 2 + 3 + 4 +    1 + 2 + 3 + 4 +    1 + 2 + 3 + 4 +    1 + 2 + 3 + 4 +
a------------------|------------------|-0----------------|-0----------------|
E------------------|------------------|-0----------------|-0----------------|
C------------------|------------------|-4----------------|-4----------------|
G------------------|---------2---2-2--|-4----------------|-4----------------|
D-2---2-2-4---4-4--|-6---6-6-0---0-0--|-2----------------|-2----------------|
A-0---0-0-2---2-2--|-4---4-4----------|------------------|------------------|


[Verse]

  1 + 2 + 3 + 4 +    1 + 2 + 3 + 4 +    1 + 2 + 3 + 4 +    1 + 2 + 3 + 4 +
a------------------|------------------|-0----------------|-0----------------|
E------------------|------------------|-0----------------|-0----------------|
C------------------|------------------|-4----------------|-4----------------|
G------------------|---------2--------|-4----------------|-4----------------|
D-2-------4--------|-6-------0--------|-2----------------|-2----------------|
A-0-------2--------|-4----------------|------------------|---------4--------|


[Break]

  1 + 2 + 3 + 4 +    1 + 2 + 3 + 4 +    1 + 2 + 3 + 4 +    1 + 2 + 3 + 4 +
a------------------|------------------|------------------|------------------|
E------------------|------------------|------------------|------------------|
C------------------|------------------|------------------|------------------|
G------------------|------------------|------------------|------------------|
D-2----------------|------------------|------------------|------------------|
A-0----------------|------------------|------------------|------------------| hold for another 4 bars


[Bridge]

  1 + 2 + 3 + 4 +    1 + 2 + 3 + 4 +    1 + 2 + 3 + 4 +    1 + 2 + 3 + 4 +
a-0---0---0---0----|-0---0---0---0----|-0---0---0---0----|-0---0---0---0----|
E-0---0---0---0----|-0---0---0---0----|-0---0---0---0----|-0---0---0---0----|
C-1---1---1---1----|-2---2---2---1----|-4---4---4---4----|-4---4---4---4----|
G-2---2---2---2----|-2---2---2---2----|-4---4---4---4----|-4---4---4---4----|
D------------------|------------------|------------------|------------------|
A------------------|------------------|------------------|------------------|


[Outro 1]

  1 + 2 + 3 + 4 +    1 + 2 + 3 + 4 +    1 + 2 + 3 + 4 +    1 + 2 + 3 + 4 +
a------------------|------------------|------------------|------------------|
E--0----0-------0--|---0-------0------|--0----0-------0--|---0-------0------|
C-0-------0---0----|-----0-------0----|-0-------0---0----|-----0-------0----|
G------------------|------------------|------------------|------------------|
D------------------|------------------|------------------|------------------|
A------------------|------------------|------------------|------------------|

  1 + 2 + 3 + 4 +    1 + 2 + 3 + 4 +    1 + 2 + 3 + 4 +    1 + 2 + 3 + 4 +
a------------------|------------------|------------------|------------------|
E--0----0-------0--|---0-------0------|--0----0-------0--|-----0-----0------|
C-0-------0---0----|-----0-------0----|-0-------0---0----|-----0-------0----|
G------------------|------------------|------------------|------------------|
D------------------|------------------|------------------|------------------|
A------------------|------------------|------------------|------------------|


[Outro 2]

  1 + 2 + 3 + 4 +    1 + 2 + 3 + 4 +    1 + 2 + 3 + 4 +    1 + 2 + 3 + 4 +
a-2---2---2---2----|------------------|-2---2---2---2----|------------------|
E-0---0---0---0----|---0-----0--------|-0---0---0---0----|---0-----0--------|
C-1---1---1---1----|-1-----0---0------|-2---2---2---2----|-2-----0---0------|
G-2---2---2---2----|-2----------------|-2---2---2---2----|-2----------------|
D------------------|------------------|------------------|------------------|
A------------------|------------------|------------------|------------------|

  1 + 2 + 3 + 4 +    1 + 2 + 3 + 4 +    1 + 2 + 3 + 4 +    1 + 2 + 3 + 4 +
a-4---4---4---4----|------------------|-2---2---2---2----|------------------|
E-0---0---0---0----|---0-----0--------|-0---0---0---0----|---0-----0--------|
C-6---6---6---6----|-6-----0---0------|-2---2---2---2----|-4-----0---0------|
G-6---6---6---6----|-6----------------|-2---2---2---2----|-4----------------|
D------------------|------------------|------------------|------------------|
A------------------|------------------|------------------|------------------|


[End]

  1 + 2 + 3 + 4 +    1 + 2 + 3 + 4 +    1 + 2 + 3 + 4 +    1 + 2 + 3 + 4 +
a-2----------------|------------------|------------------|------------------|
E-0----------------|------------------|------------------|------------------|
C-1----------------|------------------|------------------|------------------|
G-2----------------|------------------|------------------|------------------|
D------------------|------------------|------------------|------------------|
A------------------|------------------|------------------|------------------|


Structure:

[Intro] x4
[Verse] x4
[Intro] x4
[Verse] x4
[Break]
[Bridge]x2
[Verse] x4
[Break]
[Outro 1] x2
[Outro 2] x2
[Outro 1] x2
[Outro 2] x2
[End]
Suggest correction
Give kudos to tab author, rate the tab!
1 2 3 4 5
comments
print report bad tab
guest
You may want to rate the tab now too:
select rating
Wanna post a correction for this tab? Suggest correction