Oops, an error
Loading. Please wait.

Losing Streak tab

by Jesu
949 views 3 this week
no commentswrite comment
1 2 3 4 5
3 more votes to show rating
add to favorites
×
Save as Personal and add changes to this tab that will be seen only by you. Learn more ›
×
You can save this tab as Personal to edit and correct it or add notes. All changes will be seen only by you. Learn more »
launch autoscroll
font size
0
reset
how to read this tab
guitar tuner
edit
Autoscroll
slow
fast
+/-
esc
set tempo
stop
Artist: Jesu
Song: Losing Streak
Album: Opiate Sun EP

Tuning: ADGDGAd (weird I know but it's the same for the entire EP)

Structure at the bottom of the tab

Rhythm Part 1
  D                  B                  A                  G
  1 + 2 + 3 + 4 +    1 + 2 + 3 + 4 +    1 + 2 + 3 + 4 +    1 + 2 + 3 + 4 +
d------------------|------------------|------------------|-0-0-0-0-0-0-0-0--|
A------------------|------------------|------------------|-0-0-0-0-0-0-0-0--|
G-2----------------|-------0----------|------------------|-0-0-0-0-0-0-0-0--|
D-0----------------|------------------|-------2----------|-0-0-0-0-0-0-0-0--|
G-2----------------|-----4------------|-----2------------|-7-7-7-7-7-7-7-7--|
D-0----------------|---4--------------|---2--------------|-5-5-5-5-5-5-5-5--|
A------------------|-2----------------|-0----------------|------------------|

Lead Part 1 (drone the high d string for dissonance)

  D                                    B
  1   +   2   +   3   +   4   +        1   +   2   +   3   +   4   +
d------------------------------------|------------------------------------|
A-17------------------17--21--19-----|-----17--21--19------17--21--19-----|
G------------------------------------|------------------------------------|
D------------------------------------|------------------------------------|
G------------------------------------|------------------------------------|
D------------------------------------|------------------------------------|
A------------------------------------|------------------------------------|

  A                                    G
  1   +   2   +   3   +   4   +        1   +   2   +   3   +   4   +
d------------------------------------|------------------------------------|
A-----**--17--------------14--16-----|-17--17--17--17--17--16--16--17-----|
G------------------------------------|------------------------------------|
D------------------------------------|------------------------------------|
G------------------------------------|------------------------------------|
D------------------------------------|------------------------------------|
A------------------------------------|------------------------------------|

**=16p14

Lead Part 2 (drone the high d string for dissonance)
  D                  B                  A                  G
  1 + 2 + 3 + 4 +    1 + 2 + 3 + 4 +    1 + 2 + 3 + 4 +    1 + 2 + 3 + 4 +
d-0----------------|------------------|-----------0---0--|---------0---0----|
A/5---5---5/7-7--7\|-2---2---2/4-4-4h5|-7-------7*--7*---|---------0---0----|
G------------------|------------------|------------------|-0-------0--------|
D------------------|------------------|------------------|-------------4----|
G------------------|------------------|------------------|------------------|
D------------------|------------------|------------------|------------------|
A------------------|------------------|------------------|------------------|

*= h9p7

Clean Part

  D                  B                  A                  G
  1 + 2 + 3 + 4 +    1 + 2 + 3 + 4 +    1 + 2 + 3 + 4 +    1 + 2 + 3 + 4 +
d------------------|---------0--------|------------------|---------0--------|
A---------0--------|-------------0----|---------0--------|-------------0----|
G-----0-------0----|-----0------------|-----0-------0----|-----0------------|
D-0----------------|-0----------------|-0----------------|-0----------------|
G------------------|------------------|------------------|------------------|
D------------------|------------------|------------------|------------------|
A------------------|------------------|------------------|------------------|

Rhythm Part 2
  D                  B                  A                  G
  1 + 2 + 3 + 4 +    1 + 2 + 3 + 4 +    1 + 2 + 3 + 4 +    1 + 2 + 3 + 4 +
d------------------|------------------|------------------|-0-0-0-0-0-0-0-0--|
A------------------|------------------|------------------|-0-0-0-0-0-0-0-0--|
G------------------|------------------|------------------|-0-0-0-0-0-0-0-0--|
D-----7---7---7----|-----4---5---4----|-----2---2---2----|-0-0-0-0-0-0-0-0--|
G-7-7-7-7-7-7-7----|-4-4-4-4-4-4-4----|-2-2-2-2-2-2-2----|-7-7-7-7-7-7-7-7--|
D-7-7-7-7-7-7-7----|-4-4-4-4-4-4-4----|-2-2-2-2-2-2-2----|-5-5-5-5-5-5-5-5--|
A-5-5-5-5-5-5-5----|-2-2-2-2-2-2-2----|-0-0-0-0-0-0-0----|------------------|


Structure

Rhythm Part 1 x2
Rhythm Part 1 + Lead Part 1 x2
Lead Part 2 + Clean Part x2
Rhythm Part 1 x2
Rhythm Part 1 + Lead Part 1 x2
Lead Part 2 + Clean Part x2
Rhythm Part 2 x2
Rhythm Part 2 + Lead Part 1 x2
Lead Part 2 + Clean Part x1
Lead Part 1 + Lead Part 2 + Clean Part x1
Lead Part 1 + Clean Part x1
Lead Part 1 x1


            
            
Suggest correction
Creating personal tab
Creating personal tab
You can edit any tab online and save it as your Personal.

You can edit, replace or remove any tab part or add personal notes – all changes will be seen only by you.

Personal tabs can be accessed anytime from any device, even offline.
Learn more »
Give kudos to tab author, rate the tab!
1 2 3 4 5
comments
print report bad tab
guest
You may want to rate the tab now too:
select rating
Wanna post a correction for this tab? Suggest correction