Oops, an error
Loading. Please wait.

Silver Tab

version 2
version 2

Whole song

  • Correct tuning as per live videos and knowledge of... Show more

Interactive

by Jesu
40 views 3 this week
no commentswrite comment
1 2 3 4 5
3 more votes to show rating
add to favorites
launch autoscroll
font size
0
reset
how to read this tab
guitar tuner
Autoscroll
slow
fast
+/-
esc
set tempo
stop
Help us to improve Ultimate-Guitar.com Take our survey!
×
Author
Difficulty
Tuning
novice
A E A D F# B
About this tab version
Correct tuning as per live videos and knowledge of other songs in the same tuning. Structure at the bottom. Was this info helpful? Yes No
Artist: Jesu
Song: Silver
Album: Silver EP

Tuning: ADGDGa

Odd tuning I know, but he uses the same one for all the Opiate Sun EP as well


[Intro/Verse]

   A                  B                  Dmaj               D6
   1 + 2 + 3 + 4 +    1 + 2 + 3 + 4 +    1 + 2 + 3 + 4 +    1 + 2 + 3 + 4 +
a|------------------|------------------|------------------|------------------|
G|------------------|------------------|-0----------------|-0----------------|
D|------------------|------------------|-4----------------|-2----------------|
G|------------------|------------------|-2----------------|-2----------------|
D|-2----------------|-4----------------|-0----------------|-0----------------|
A|-0----------------|-2----------------|------------------|------------------|


[Chorus]

   A                  Baug6min7          D
   1 + 2 + 3 + 4 +    1 + 2 + 3 + 4 +    1 + 2 + 3 + 4 +    1 + 2 + 3 + 4 +
a|------------------|------------------|------------------|------------------|
G|---------------0--|---------------0--|---------------0--|---------------0--|
D|-----2---2---2----|-----2---2---2----|-----2---2---2----|-----2---2---2----|
G|-------2---2------|-------2---2------|-------2---2------|-------2---2------|
D|------------------|------------------|-0----------------|-0----------------|
A|-0----------------|-2----------------|------------------|------------------|


[Break]
   A
   1 + 2 + 3 + 4 +    1 + 2 + 3 + 4 +    1 + 2 + 3 + 4 +    1 + 2 + 3 + 4 +
a|------------------|------------------|------------------|------------------|
G|------------------|------------------|------------------|------------------|
D|------------------|------------------|------------------|------------------|
G|------------------|------------------|------------------|------------------|
D|-2----------------|------------------|------------------|------------------|
A|-0----------------|------------------|------------------|------------------| hold for another 4 bars


[Bridge (rest for 8 bars)]


[Outro 1]

   A                  C#                 B                  E
   1 + 2 + 3 + 4 +    1 + 2 + 3 + 4 +    1 + 2 + 3 + 4 +    1 + 2 + 3 + 4 +
a|------------------|------------------|------------------|------------------|
G|------------------|------------------|------------------|------------------|
D|------------------|------------------|------------------|------------------|
G|------------------|------------------|------------------|-4----------------|
D|-2----------------|-6----------------|-4----------------|-2----------------|
A|-0----------------|-4----------------|-2----------------|------------------|


[Extra Bar]

   C#
   1 + 2 + 3 + 4 +
a|------------------|
G|------------------|
D|------------------|
G|------------------|
D|-6----------------|
A|-4----------------|


[Outro 2]

   A                  E                  B                  C#
   1 + 2 + 3 + 4 +    1 + 2 + 3 + 4 +    1 + 2 + 3 + 4 +    1 + 2 + 3 + 4 +
a|------------------|------------------|------------------|------------------|
G|------------------|------------------|------------------|------------------|
D|------------------|------------------|------------------|------------------|
G|------------------|-4----------------|------------------|------------------|
D|-2----------------|-2----------------|-4----------------|-6----------------|
A|-0----------------|------------------|-2----------------|-4----------------|


[End]
   C#
   1 + 2 + 3 + 4 +    1 + 2 + 3 + 4 +    1 + 2 + 3 + 4 +    1 + 2 + 3 + 4 +
a|------------------|------------------|------------------|------------------|
G|------------------|------------------|------------------|------------------|
D|------------------|------------------|------------------|------------------|
G|------------------|------------------|------------------|------------------|
D|-6----------------|------------------|------------------|------------------|
A|-4----------------|------------------|------------------|------------------|


Structure:

[Intro] x2
[Verse] x2
[Chorus] x2
[Verse] x2
[Chorus] x4
[Break]
[Verse] x2
[Chorus] x4
[Bridge]
[Outro 1] x4
[Extra Bar]
[Outro 2] x12
Suggest correction
Give kudos to tab author, rate the tab!
1 2 3 4 5
comments
print report bad tab
guest
You may want to rate the tab now too:
select rating
Wanna post a correction for this tab? Suggest correction