Oops, an error
Loading. Please wait.

Transfigure Tab

by Jesu
28 views 1 this week
no commentswrite comment
1 2 3 4 5
3 more votes to show rating
add to favorites
launch autoscroll
font size
0
reset
how to read this tab
guitar tuner
Autoscroll
slow
fast
+/-
esc
set tempo
stop
Help us to improve Ultimate-Guitar.com Take our survey!
×
Author
Difficulty
Tuning
novice
A E A D F# B
About this tab version
It's in the correct tuning as per various interviews with Justin Broadrick. Was this info helpful? Yes No
Artist: Jesu
Song: Transfigure
Album: Conqueror

Tuning: ADGCEa (A standard)


[Intro/Verse]

     G                                     D
     1 + 2 + 3 + 4 +    1 + 2 + 3 + 4 +    1 + 2 + 3 + 4 +    1 + 2 + 3 + 4 +
a|-0----------------|-0---0------------|-0----------------|-0---0------------|
E|-3-------3---3----|-3---3---3---3----|-2-------2---2----|-2---2---2---0----|
C|-2-------2---2----|-2---2---2---2----|-2-------2---2----|-2---2---2---2----|
G|-0-------0---0----|---------0---0----|-2-------2---2----|---------2---2----|
D|------------------|------------------|-0-------0---0----|---------0---0----|
A|------------------|------------------|------------------|------------------|(x2)

     E                                     A
     1 + 2 + 3 + 4 +    1 + 2 + 3 + 4 +    1 + 2 + 3 + 4 +    1 + 2 + 3 + 4 +
a|-0----------------|-0---0------------|------------------|------------------|
E|-0----------------|-4---4------------|------------------|------------------|
C|-4-------4---4----|-4---4---4---4----|------------------|------------------|
G|-4-------4---4----|---------4---4----|------------------|------------------|
D|-2-------2---2----|---------2---2----|-2----------------|---------------0--|
A|------------------|------------------|-0------------0---|-0-------0-h-3----|


[Bridge]

     G                                     D
     1 + 2 + 3 + 4 +    1 + 2 + 3 + 4 +    1 + 2 + 3 + 4 +    1 + 2 + 3 + 4 +
a|-0----------------|-0---0------------|-0----------------|------------------|
E|-3-------3---3----|-3---3---3---3----|-2----------------|------------------|
C|-2-------2---2----|-2---2---2---2----|-2----------------|------------------|
G|-0-------0---0----|---------0---0----|-2----------------|------------------|
D|------------------|------------------|-0----------------|------------------|
A|------------------|------------------|------------------|------------------|


[Outro]

     E                                                        G
     1 + 2 + 3 + 4 +    1 + 2 + 3 + 4 +    1 + 2 + 3 + 4 +    1 + 2 + 3 + 4 +
a|---------0--------|---------0--------|---------0--------|-0-------0--------|
E|---------0--------|---------0--------|---------0--------|-0-------0--------|
C|---------4--------|---------4--------|---------4--------|-7-------7--------|
G|-4---4---4--------|-4---4---4--------|-4---4---4--------|-7-------7--------|
D|-2---2---2--------|-2---2---2--------|-2---2---2--------|-5-------5--------|
A|------------------|------------------|------------------|------------------|

     A
     1 + 2 + 3 + 4 +    1 + 2 + 3 + 4 +    1 + 2 + 3 + 4 +    1 + 2 + 3 + 4 +
a|------------------|------------------|------------------|------------------|
E|------------------|------------------|------------------|------------------|
C|------------------|------------------|------------------|------------------|
G|------------------|------------------|------------------|------------------|
D|-2---2------------|-2---2------------|-2---2------------|-2---2---------0--|
A|-0---0---x-0------|-0---0---x-0------|-0---0---x-0------|-0---0---0-h-3----|


[End]

     D
     1 + 2 + 3 + 4 +    1 + 2 + 3 + 4 +    1 + 2 + 3 + 4 +    1 + 2 + 3 + 4 +
a|------------------|------------------|------------------|------------------|
E|-2----------------|------------------|------------------|------------------|
C|-2----------------|------------------|------------------|------------------|
G|-2----------------|------------------|------------------|------------------|
D|-0----------------|------------------|------------------|------------------|
A|------------------|------------------|------------------|------------------|

************************************

| x  Dead note
| h  Hammer-on

************************************
Suggest correction
Give kudos to tab author, rate the tab!
1 2 3 4 5
comments
print report bad tab
guest
You may want to rate the tab now too:
select rating
Wanna post a correction for this tab? Suggest correction