Oops, an error
Loading. Please wait.

Como La Brisa Tab

version 1
version 1

Whole song

73 views 1 this week
no commentswrite comment
1 2 3 4 5
please rate
add to favorites
launch autoscroll
font size
0
reset
how to read this tab
guitar tuner
Autoscroll
slow
fast
+/-
esc
set tempo
stop
Help us to improve Ultimate-Guitar.com Take our survey!
×
Esta es la intro y el solo que ase el piano y la guitarra
ami "criterio"

Aqui esta la tablatura espero les sirva


E|------5-----4------2--------2-----0----------------
B|--2-----2------2-------------------------3---------
G|------------------------2------2-----2-------------
D|---------------------------------------------------
A|---------------------------------------------------
E|---------------------------------------------------

E|------5------4---2---------------------------------
B|--2-----2------------2----0------------------------
G|---------------------------------------------------
D|---------------------------------------------------
A|---------------------------------------------------
E|---------------------------------------------------

  Solo

E|---------------------------------------------------
B|--10--12--14-------------15------------------------
G|--x---x-- x------------------14/16b----------------
D|--7---9--11-------16h17----------------------------
A|---------------------------------------------------
E|---------------------------------------------------

E|---------------------------------------------------
B|---------10------------------10--------------------
G|--7---7------9/11b----7---7------------------------
D|----7-------------------7--------------------------
A|---------------------------------------------------
E|---------------------------------------------------

E|---------------------------------------------------
B|--10--12--14-------------15------------------------
G|--x---x-- x------------------14/16b----------------
D|--7---9--11-------16h17----------------------------
A|---------------------------------------------------
E|---------------------------------------------------

E|---------------------------------------------------
B|---------10------------------10--------------------
G|--7---7------9/11b----7---7------7/9/11--9--7------
D|----7-------------------7--------------------------
A|---------------------------------------------------
E|---------------------------------------------------

después dice:

   desciende sobre mi como la brisa,
E|-------------------------------------
B|-------------------------------------
G|--6~~~----------------------4~~~-----
D|-------------------------------------
A|-------------------------------------
E|-------------------------------------

 que destile sobre mi,tu poder en mi has fluir
E|-----------------------------------------------
B|-----------------------------------------------
G|-----------------2~~~-------------------9~7~~--
D|-----------------------------------------------
A|-----------------------------------------------
E|-----------------------------------------------
comments
We did not receive enough feedback on this tab! Please rate:
print report bad tab
1 2 3 4 5
I want to post or [tab]
guest
You may want to rate the tab now too:
select rating
Please do not post tabs as comments. Select "correction" instead!