Oops, an error
Loading. Please wait.

Mi Universo Tab

version 1
version 1

Whole song

31,702 views 6 this week
no commentswrite comment
1 2 3 4 5
excellent!
x 4
add to favorites
launch autoscroll
font size
0
reset
how to read this tab
guitar tuner
Tab Pro tools
  • play this tab
  • loop segment
  • change instrument
  • show fretboard
  • metronome
×
Best way to learn
"Mi Universo"
Autoscroll
slow
fast
+/-
esc
set tempo
stop
Contributor
artistjesus adrian romero
song:mi universo

G:  320033
C:  032010
Am: 002210
D:  X00232
G/B:X20033
C6: X32200
C9: 032030

E||----------------------------|-------------------|
B||----------------------------|-------------------|
G||--------0--2--2---4--2--0---|--------0--2--2--4-|
D||-----0----------------------|-----0-------------|
A||----------------------------|--3----------------|
E||--3-------------------------|-------------------|

----------------------------|
----------------------------|
--------0--2--2---4--2--0---|
-----0----------------------|
----------------------------|
--3-------------------------|

-----------------------------------||
----------------------------5------||
--0-2-4-5h7--5-4h5p4--------7------||
---------------------5h7----7--7---||
-------------------------------7---||
-----------------------------------||

1
Guitar
                        -------------------------|
                        -------------------------|
                        -------0--2--2---4--2--0-|
                        ----0--------------------|
                        -------------------------|
                        -3-----------------------|

teclado       G
        Que seas mi universo
Guitar
                        ---------0----------------------------------|
                        -5--5----1----------------------------------|
                        -5--5----0-----------------0--2--2--4--2--0-|
                        -5--5----2--------------0-------------------|
                        -0--0----3----------------------------------|
                        -x-x-x-x-x-----------3----------------------|
                        C                     G
        No quiero darte solo un rato de mi tiempo
Guitar
                        -0-0-0-0-0---------------------|
                        -5-5-5-5-1-------------3-------|
                        -5-5-5-5-2-----------0---0-----|
                        -5-5-5-5-2---------4-------4---|
                        -0-0-0-0-0-------5-----------5-|
                        -x-x-x-x-0---------------------|

                        C       Am          D
        No quiero separarte un día solamente
Guitar
                        -0-0-0-0-0---------------------|
                        -5-5-5-5-1-------------3-------|
                        -5-5-5-5-2-----------0---0-----|
                        -5-5-5-5-2---------4-------4---|
                        -0-0-0-0-0-------5-----------5-|
                        -x-x-x-x-0---------------------|

               G
        Que seas mi universo
Guitar
                        -0-0-0-0-0----------------------------------|
                        -5-5-5-5-5----------------------------------|
                        -5-5-5-5-5-----------------0--2--2--4--2--0-|
                        -5-5-5-5-5--------------0-------------------|
                        -0-0-0-0-0----------------------------------|
                        -x-x-x-x-x-----------3----------------------|

                        C                     G
        No quiero darte mis palabras como gotas
Guitar
                        -0-0-0-0-0---------------------3-0-3-|
                        -5-5-5-5h7-------------3-------3-5-3-|
                        -5-5-5-5h7-----------0---0-----0-5-4-|
                        -5-5-5-5h7---------4-------4---0-5-5-|
                        -0-0-0-0-0-------5-----------5-2-0-5-|
                        -x-x-x-x-x---------------------3-x-3-|

                        C         Am          D
        Quiero un diluvio de alabanzas en mi boca

     "CORO"

         G
Que seas mi universo
          C                            G
Que seas todo lo que siento y lo que pienso
           C                      Am
Que seas el primer aliento en la mañana
              D
Y la luz en mi ventana

          G
Que seas mi universo
           C                     G
Que encierres cada uno de mis pensamientos
          C                    Am
Que tu presencia y tu poder sean mi alimento
                 D       *por aqui hace un G punteado
Oh Jesus es mi deseo
        G
Que seas mi universo

     G
Que seas mi universo

2 pa la guitarra se repite casi lo mismo...
            C                      G
No quiero darte solo parte de mis años

            C           Am              D
Te quiero dueño de mi tiempo y de mi espacio

        G
Que seas mi universo

            C                          G
No quiero hacer mi voluntad quiero agradarte
Guitar
                        -0-0-0-0-0----------------------------3-0-3--|
                        -5-5-5-5h7----3h5p3-----------3-------3-5-3--|
                        -5-5-5-5h7--5-------5-------0---0-----0-5-4--|
                        -5-5-5-5h7------------5---4-------4---0-5-5--|
                        -0-0-0-0-0--------------5-----------5-2-0-5--|
                        -x-x-x-x-x----------------------------3-x-3--|
                 C               Am             D
        y cada sueño que hay en mi quiero entregarte

"CORO"
         G
Que seas mi universo
          C                            G
Que seas todo lo que siento y lo que pienso
           C                      Am
Que seas el primer aliento en la mañana
              D
Y la luz en mi ventana

          G
Que seas mi universo
           C                     G
Que encierres cada uno de mis pensamientos
          C                    Am
Que tu presencia y tu poder sean mi alimento
                 D
Oh Jesus es mi deseo
        G
Que seas mi universo
comments
print report bad tab
I want to post or [tab]
guest
You may want to rate the tab now too:
select rating
Please do not post tabs as comments. Select "correction" instead!