Oops, an error
Loading. Please wait.

Break Every Chain Tab

23,500 views 36 this week
1 commentread comment
1 2 3 4 5
x 10
add to favorites
launch autoscroll
font size
0
reset
how to read this tab
guitar tuner
×
Best way to learn
"Break Every Chain"
Autoscroll
slow
fast
+/-
esc
set tempo
stop
Tuning: Standard

[Instrumental 1]
e|---------------------------------------------------------------------------|
B|---------------------------------------------------------------------------|
G|------6--------------6-----------------------------------------------------|
D|---7-9------------7-9------------------------------------------------------|
A|--7-----7~-------7-----7~--------------------------------------------------|
E|---------------------------------------------------------------------------|

[Instrumental 2]
e|---------------------------------------------------------------------------|
B|---------------------------------------------------------------------------|
G|-----------------------------9---------------------------------------------|
D|----11---9-11~------11---9-11----------------------------------------------| (x2)
A|--12--12----------12--12-------12~-----------------------------------------|
E|---------------------------------------------------------------------------|

e|------------------------------12-------------------------------------------|
B|----14--12--14~-----14---12-14---------------------------------------------|
G|--14--14----------14--14---------14----------------------------------------|
D|---------------------------------------------------------------------------| (x2)
A|---------------------------------------------------------------------------|
E|---------------------------------------------------------------------------|

[Build Up]
e|---------------------------------------------------------------------------|
B|--14-15-14-12--------------------------------------------------------------| (x4)
G|--14-14-14-14--------------------------------------------------------------|
D|---------------------------------------------------------------------------|
A|---------------------------------------------------------------------------|
E|---------------------------------------------------------------------------|


************************************

| ~  Vibrato

************************************
Suggest correction
comments
print report bad tab
1 comment total.
0 reply
epicpic190 36 Sep 23, 2016 10:00 PM

noooooooooooooooooooo

guest
You may want to rate the tab now too:
select rating
Wanna post a correction for this tab? Suggest correction