Oops, an error
Loading. Please wait.

Father Of Lights Tab

version 1
version 1

Whole song

5,658 views 3 this week
no commentswrite comment
1 2 3 4 5
x 3
add to favorites
launch autoscroll
font size
0
reset
how to read this tab
guitar tuner
Autoscroll
slow
fast
+/-
esc
set tempo
stop
Help us to improve Ultimate-Guitar.com Take our survey!
×
Difficulty
novice
Intro:
Quarter note delay.
e|-----10-12-14----10-12-14----10-12-9------|
B|--12----------12----------10---------10---|
G|------------------------------------------|
D|------------------------------------------|
A|------------------------------------------|
E|------------------------------------------|


Verse:
Break Then -
e|---|----0-2--|---0-2--|---------|-----0-2-----0-2-2(x8)-0(x8)-|
B|---|--3------|-3------|-3h5-2---|---3-------3-----------------|
G|-4-|-------4-|------2-|-------2-|-4-------4-------------------|
D|---|---------|--------|---------|-----------------------------|
A|---|---------|--------|---------|-----------------------------|
E|---|---------|--------|---------|-----------------------------|


Pre-Chorus:
Pick through chords (making the D into D2 and A into A2 sounds better when picking through them)
Em, D2, A2


e|----------------------|
B|----7-7-7-7s10-10-10--|
G|----------------------|
D|----------------------|
A|----------------------|
E|----------------------|


Chorus:
e|------------------------------10(x8)---9(x6)--------|
B|---10s12(x7)---7(x5)-10(x3)------------------10(x2)-|
G|----------------------------------------------------|
D|----------------------------------------------------|
A|----------------------------------------------------|
E|----------------------------------------------------|


Bridge:
D/F# Bm A
D/F# Bm A
Bm   G
D    A  Bm
G    D  A


(Chord inversions)
e|---------------------------------------------------|
B|----10--7--10--10--7--10--7--8--7--10--7--8--7--10-|
G|----7---7--9---7---7--9---7--7--7--9---7--7--7--9--|
D|---------------------------------------------------|
A|---------------------------------------------------|
E|---------------------------------------------------|
Suggest correction
Give kudos to tab author, rate the tab!
1 2 3 4 5
comments
print report bad tab
guest
You may want to rate the tab now too:
select rating
Wanna post a correction for this tab? Suggest correction