Oops, an error
Loading. Please wait.

Father Of Lights Tab

version 2
version 2

Whole song

884 views 1 this week
no commentswrite comment
1 2 3 4 5
please rate
add to favorites
launch autoscroll
font size
0
reset
how to read this tab
guitar tuner
Autoscroll
slow
fast
+/-
esc
set tempo
stop
Help us to improve Ultimate-Guitar.com Take our survey!
×
Author
Difficulty
novice
Intro (standard tuning)
e--------------------------------------------------------------------'X4
b--12---15-17-19----12---15-17-19-------15--17--14-------------------'
g----------------------------------14----------------14--------------'
d--------------------------------------------------------------------'
a--------------------------------------------------------------------'
e--------------------------------------------------------------------'

VERSE AFTER 2 BARS OF NOTHING


e--------------------------------------------------------------------'X2
b--------------------------------------------------------------------'
g--4-----7--9--11----4-----7--9--11------7--9--6---------------------'
d------------------------------------7------------7------------------'
a--------------------------------------------------------------------'
e--------------------------------------------------------------------'

 CHORUS                  sometimes has a 9-11 slide here
e--------------------------''------------------------------------------------|
b--12-12-12-12-12-12-12-12-''----------------------15-15-15-15-15-15-15-15---|
g--------------------------11-11-11-11-11-11-11-9----------------------------|
d----------------------------------------------------------------------------|
a----------------------------------------------------------------------------|
e----------------------------------------------------------------------------|

e----------------------------------------------------------------------------'x2
b--14-14-14-14-14-14-14-14---------------------------------------------------'
g----------------------------------------------------------------------------'
d----------------------------------------------------------------------------'
a----------------------------------------------------------------------------'
e----------------------------------------------------------------------------'

This is my first time making tab, hope it was useful :D
Suggest correction
Give kudos to tab author, rate the tab!
1 2 3 4 5
comments
print report bad tab
guest
You may want to rate the tab now too:
select rating
Wanna post a correction for this tab? Suggest correction