Oops, an error
Loading. Please wait.

Fierce Bass Tab

91 views 12 this week
no commentswrite comment
1 2 3 4 5
3 more votes to show rating
add to favorites
launch autoscroll
font size
0
reset
guitar tuner
Autoscroll
slow
fast
+/-
esc
set tempo
stop
Help us to improve Ultimate-Guitar.com Take our survey!
×
[Intro]
1x with no bass
1x with bass ring outs

G|---------------------------------------------------------------------------|
D|---------------------------------------------------------------------------|
A|-10r--5r--2r-0r------------------------------------------------------------|
E|---------------------------------------------------------------------------|

[Verse]
Bass comes in at...
"I cat't outrun this heart I'm tethered to..."

G|---------------------------------------------------------------------------|
D|---------------------------------------------------------------------------|
A|-10r--5r--2r--/14-12-------------------------------------------------------|
E|---------------------------------------------------------------------------|

[Chorus]
"Like a tidal wave..."

G|---------------------------------------------------------------------------|
D|---------------------------------------------------------------------------|
A|-----------------5-5-5-5-5-5-5-5-2-2-2-2-2-2-2-2-2-------------------------|
E|-3-3-3-3-3-3-3-3-----------------------------------5-5-5-5-5-5-5-5---------|

G|-----------------------------------------------------------------------------------------|
D|-----------------------------------------------------------------------------------------|
A|----------------5-5-5-5-5-5-5-5-2-2-2-2-2-2-2-2-----------------/10-10-10-10-10-10-10-10-|
E|-3-3-3-3-3-3-3-3--------------------------------5-5-5-5-5-5-5-5--------------------------|

[Verse]
"You cannot fail the only thing I've found..."

G|---------------------------------------------------------------------------|
D|---------------------------------------------------------------------------|
A|-10r--5r--2r--/14-12-------------------------------------------------------|
E|---------------------------------------------------------------------------|

Line 2 of the verse starts with a fill then remains the same for the rest..
"You don't hold back..."

G|-6h7p6-----------------------------------------------------------------------|
D|-------7---5-----------------------------------------------------------------|
A|---------7---5------5r--2r--/14-12-------------------------------------------|
E|----------------3r-----------------------------------------------------------|

[Chorus]

[Bridge]
Coming out of the chorus, when you hear him sing "Your love is fierce..." be ready to ring out on G
G|---------------------------------------------------------------------------|
D|---------------------------------------------------------------------------|
A|---------------------------------------------------------------------------|
E|-3r------------------------------------------------------------------------|

"You chase me down, you seek me out..."
1st Time: Silent No Bass

2nd Time: Ring Outs
G|---------------------------------------------------------------------------|
D|---------------------------------------------------------------------------|
A|------2r-------------------------------------------------------------------|
E|--3r------5r---------------------------------------------------------------|

3rd Time: Play out/Drive/Following Kick 
*The number of strums is probably a bit off, but just drive the chords and listen for the note changes*
G|---------------------------------------------------------------------------------------------|
D|---------------------------------------------------------------------------------------------|
A|----------------------------------------------------2-2-2-2-2-2-2-2-2-2-2-2-5-5-5-5-5-5-5-5--|
E|-3-3-3-3-3-3-3-3-3-3-3-3-3-3-3-3--3-3-3-3-3-3-3-3-3------------------------------------------|

[Chorus]
[Intro}

Song ends on a G (Low E string, 3rd Fret)


************************************

| x   Dead note
| g   Grace note
| (n) Ghost note
| h   Hammer-on
| p   Pull-off
| r   Release
| >   Accented note
| t   Tapping
| b   Bend
| br  Bend release
| pb  Pre-bend
| pbr Pre-bend release
| /   Slide up
| \   Slide down
| ~   Vibrato
| s   Slap
| P   Pop
| PM  Palm mute
| TR  Trill
| N   Tremolo

************************************
Suggest correction
Give kudos to tab author, rate the tab!
1 2 3 4 5
comments
print report bad tab
guest
You may want to rate the tab now too:
select rating
Wanna post a correction for this tab? Suggest correction