Oops, an error
Loading. Please wait.

Fill Me Up Tab

version 2
version 2

Whole song

6,026 views 39 this week
no commentswrite comment
1 2 3 4 5
accurate
x 5
add to favorites
launch autoscroll
font size
0
reset
how to read this tab
guitar tuner
Tab Pro tools
  • play this tab
  • loop segment
  • change instrument
  • show fretboard
  • metronome
×
Best way to learn
"Fill Me Up"
Autoscroll
slow
fast
+/-
esc
set tempo
stop
Contributor
Difficulty
novice
Fill Me Up

Jesus Culture

Tabbed By: dhstrummer

This is the version We play in our youth groups band, hope you enjoy!

(Intro and Verse)

E-----------------------------------------------------|
B--------------------------------------------0--------|
G---------------------------0---0------4--------------|
D-------------------------------0------------ 0-------|
A-5(slide)7(slide back to)5----5------5---5-----------|
E-----------------------------------------------------|


E-----------------------------------------------------|
B-------------------------------------------0---------|
G----------------------------0----0-----4-------------|
D---------------------------------0----------0--------|
A--5(slide)7(slide back to)5----5---------5-----------|
E------------------------------------3----------------|

Do both pieces 3.5x

E-----------------------------------------------------|
B-----------------------------------------------------|
G----------------------------0-----0------------------|
D----------------------------------0------------------|
A--3(slide)5(slide back to)3---3----------------------|
E-----------------------------------------------------|

Then do this piece 1x


(Go into Chorus chords: Em, G, C, D) 1x

(Verse Again)

(Chorus)

 (Lead After 2nd Chorus)
E-----------------------------------------------------|
B--13----12----10----8--------------------------------|
G-----------------------------------------------------| 3x
D-----------------------------------------------------|
A-----------------------------------------------------|
E-----------------------------------------------------|



E-----------------------------------------------------|
B--13----12----10-------------------------------------|
G-----------------------------------------------------| 1x
D-----------------------------------------------------|
A-----------------------------------------------------|
E-----------------------------------------------------|


(Do intro again for verse 2)


(Go into Chorus chords: Em, G, C, D) 1x or 2x (And Lead after)


 (Bridge)

E-----------------------------------------------------|
B--------5-----5--------12------12--------------------|
G--7--7-----7-----7--7--------------------------------|
D---------------------------12------12----------------|
A-----------------------------------------------------|
E-----------------------------------------------------|


E------------------------------------------------------|
B--------5-----5------------12------12-----------------|
G--7--7-----7-----7--7---------------------------------|
D-------------------------------12------12-------------|
A-----------------------10-----------------------------|
E------------------------------------------------------|

The End
comments
print report bad tab
I want to post or [tab]
guest
You may want to rate the tab now too:
select rating
Please do not post tabs as comments. Select "correction" instead!