Oops, an error
Loading. Please wait.

Forevermore Tab

version 1
version 1

Intro

Whole song

1,739 views 39 this week
1 commentread comment
1 2 3 4 5
please rate
add to favorites
launch autoscroll
font size
0
reset
how to read this tab
guitar tuner
Tab Pro tools
  • play this tab
  • loop segment
  • change instrument
  • show fretboard
  • metronome
Autoscroll
slow
fast
+/-
esc
set tempo
stop
Contributor
Difficulty
intermediate
Forevermore - Jesus Culture

Capo 4
t = tremolo

Can be played with low mix "filler" delay in you want.

Intro
E|------------------------------------|   |---------|
B|--7t--5t--10t--7t--12t--5t--7t--5t--|   |----7----|  Let Ring out
G|------------------------------------|X2 |---------|
D|------------------------------------|   |---------|
A|------------------------------------|   |---------|
E|------------------------------------|   |---------|


Verse 1
E|---------------------------------|
B|---------------------------------|
G|---------------------------------|
D|------------------0t-------------|  Palm Muted
A|---------0t--2t----------0t--2t--|
E|----3t----------------3t---------|

Pre-Chorus
    G    Bm     A
E|--3-----2-----------|
B|--3-----3-----2-----|
G|--0-----4-----2-----|
D|--0-----4-----2-----|
A|--2-----2-----------|
E|--3-----------------|

Chorus
E|---9t--10t----7t---5t----|
B|-------------7t---5t-----|
G|-------------------------|
D|-------------------------|
A|-------------------------|
E|-------------------------|

Verse 2             D    G    Bm    A
E|-----------| |----2----3----2----------|
B|-----------| |----3----3----3-----2----|
G|-----------| |----2----0----4-----2----|  Arpeggiate each chord
D|-----------| |---------0----4-----2----|  First part palm muted as in Verse 1
A|-----0t-2t-| |---------2----2----------|
E|---3t------| |---------3---------------|

Bridge Soloes
E|-------------------------------|-----------------------------|
B|--10--12-------------2h3p2h3---|-----------------2/3---5/7---|
G|---------9---11...\------------|---2/4---2-------------------|
D|-------------------------------|-----------4---2-------------|
A|-------------------------------|-----------------------------|
E|-------------------------------|-----------------------------|

E|----------------------------------------|
B|----10t----10t----10t--7t--8t-7t--------|
G|-------7t-----7t-----------------9t-----| "We are shouting..."
D|----------------------------------------|   X3  (Palm muted)
A|----------------------------------------|
E|----------------------------------------|

E|--10t---10t---10t----12t-----|
B|-----7t----7t----7t----10t---|
G|-----------------------------|  X3
D|-----------------------------|  (Open palm)
A|-----------------------------|
E|-----------------------------|

E|--10t----10t----10t---12t--9t----|
B|-----7t-----7t-----7t------------|
G|---------------------------------|
D|---------------------------------|
A|---------------------------------|
E|---------------------------------|

Outro
E|------10t----10t---12t---9t----|
B|----7t-----7t------------------|
G|-------------------------------|
D|-------------------------------|
A|-------------------------------|
E|-------------------------------|
comments
We did not receive enough feedback on this tab! Please rate:
print report bad tab
1 2 3 4 5
1 comment total.
0 reply
erik.machorro wrote on July 11 2013, 02:48 pm, edited on November 26 2014, 12:52 pm

For those interested, this is the cover that I tabbed out by ear from.
https://www.youtube.com/watch?v=KBdNVbXlC1Q

I want to post or [tab]
guest
You may want to rate the tab now too:
select rating
Please do not post tabs as comments. Select "correction" instead!