Oops, an error
Loading. Please wait.

Glorious Tab

2,178 views 6 this week
2 commentsread comments
1 2 3 4 5
x 3
add to favorites
launch autoscroll
font size
0
reset
how to read this tab
guitar tuner
Autoscroll
slow
fast
+/-
esc
set tempo
stop
Help us to improve Ultimate-Guitar.com Take our survey!
×
Difficulty
novice
So, after about 2 hours of searching I was unable to find this intro tabbed out. 
Yesterday, while my worship team was playing this song, I figured it out! Whoohoo!

E------------------------------------12-------|
B---17-16-14---12p14---12p14-------9----------|
G---------------------------------------------|
D---------------------------------------------|
A---------------------------------------------|
E---------------------------------------------|

Enjoy!
Suggest correction
Give kudos to tab author, rate the tab!
1 2 3 4 5
comments
print report bad tab
2 comments total.
0 reply
Daan v Deutekom 10 Jan 19, 2013 07:41 AM

nice story :)

0 reply
Nkidd92 10 Apr 10, 2013 02:23 PM

hey you were good up until the last two instead of it being 9 12 its 12 9
so its 17 16 14 12p14 12p14 12 9 should look like this below

E-------------------------------12-------------|
B---17-16-14---12p14---12p14-------9----------|
G---------------------------------------------|
D---------------------------------------------|
A---------------------------------------------|
E---------------------------------------------|

guest
You may want to rate the tab now too:
select rating
Wanna post a correction for this tab? Suggest correction