Oops, an error
Loading. Please wait.

Holding Nothing Back Tab

version 1
version 1

Intro

Whole song

Interactive

14,635 views 21 this week
2 commentsread comments
1 2 3 4 5
accurate
x 3
add to favorites
launch autoscroll
font size
0
reset
how to read this tab
guitar tuner
Autoscroll
slow
fast
+/-
esc
set tempo
stop
Help us to improve Ultimate-Guitar.com Take our survey!
×
Jesus Culture - Holding Nothing Back

intro

e|------------------------------------------------------------------------|
B|------------------------------------------------------------------------|
G|-13-13-13-11-13-13------------------------------------------------------|
D|-------------------11-11-11---------------------------------------------| X2
A|------------------------------------------------------------------------|
E|------------------------------------------------------------------------|

e|------------------------------------------------------------------------|
B|------------------------------------------------------------------------|
G|-13-13-13-13-13-13-13-13-13-13-13-13-13-13-13-14-14-14------------------|
D|------------------------------------------------------------------------|
A|------------------------------------------------------------------------|
E|------------------------------------------------------------------------|
Suggest correction
Give kudos to tab author, rate the tab!
1 2 3 4 5
comments
print report bad tab
2 comments total.
+1 reply
ace man 123 10 wrote on November 10 2010, 06:19 pm

In the intro, there are only two 13's not three.
Other then that its good

0 reply
billysgottalent 10 wrote on January 9 2011, 12:18 pm

Shouldn't:
e|------------------------------------------------------------------------|
B|------------------------------------------------------------------------|
G|-13-13-13-13-13-13-13-13-13-13-13-13-13-13-13-14-14-14------------------|
D|------------------------------------------------------------------------|
A|------------------------------------------------------------------------|
E|------------------------------------------------------------------------|
Be:
e|------------------------------------------------------------------------|
B|------------------------------------------------------------------------|
G|------------------------------------------------------------------------|
D|-13-13-13-13-13-13-13-13-13-13-13-13-13-13-13-14-14-14------------------|
A|------------------------------------------------------------------------|
E|------------------------------------------------------------------------|

guest
You may want to rate the tab now too:
select rating
Please do not post tabs as comments. Select "correction" instead!