Oops, an error
Loading. Please wait.

Holding Nothing Back Tab

version 1
version 1

Whole song

Interactive

29,255 views 27 this week
3 commentsread comments
1 2 3 4 5
x 13
add to favorites
launch autoscroll
font size
0
reset
how to read this tab
guitar tuner
Autoscroll
slow
fast
+/-
esc
set tempo
stop
Help us to improve Ultimate-Guitar.com Take our survey!
×
Author
Intro (x4)
--------------------------------------------|
-9-9-7-9-9-9--------------------------------|
-------------6-6-(x2)-8-8-8-8-(x3)-8-9-9-9--|
--------------------------------------------|
--------------------------------------------|
--------------------------------------------|

On the #3 of intro, however, the track plays like this (after #3 go back to original 
intro above for #4):

------------------------------------------------------|
-9-9-7-9-9-9------------------------------------------|
-------------6-6-(x2)-8-8-8-8-8-8-9-9-9-9-9-8-9-9-----|
------------------------------------------------------|
------------------------------------------------------|
------------------------------------------------------|


Verse (comes right in after intro ends):
Play like a bass, with slight palm mutes.
----------------------------|
----------------------------|
----------------------------|
----------------------------|
-7...--------------7...-----|
-------9...--5...-----------|

Pre-Chorus
Strum once
-0---0---0----|
-2---0---4----|
-2---6---4----| (x2)
-2---6---4----|
-0---4---2----|
--------------|
A C#m7 Badd4

Chorus
Power chords: E B/D# C#m B (x2)

For B/D#, play
-----
-----
-7---
-9---
-6---
-----

Instrumental
Some notes aren't right, as there were just too many things to memorize... but there 
general idea is there.

------------------------------------------|
------------------------------------------|
-1-1-1-s9-9-9-9--9...-8-8-8-8-9-9-8-9-8-9-|
------------------------------------------|
------------------------------------------|
------------------------------------------|

--------------------------------------|
----12--------------------------------|
-13----(x4)-13-11-11---8-8-8-8-8-9-9--|
--------------------------------------|
--------------------------------------|
--------------------------------------|

----11-----11-----12----11--------11--|
--------12-----12----12----12---9-----|
-13-----------------------------------|
--------------------------------------|
--------------------------------------|
--------------------------------------|

-------------------12-12-12-14-14-16-16--------------|
-9-10-10-9-10-9-10----------------------14-14-14-14--|
-9-9--9--9-9--9-9------------------------------------|
-----------------------------------------------------|
-----------------------------------------------------|
-----------------------------------------------------|

----------------------|
-9-10-10-9-10-9-9-12--|
-9-9--9--9-9--9-9-9---|
----------------------|
----------------------|
----------------------|

For the ending, play intro twice, but when you'd normally go up to the ninth fret on 
second time, go up an octave:
----------------------------------------------|
-9-9-7-9-9-9----------------------------------|
-------------6-6-(x2)-8-8-8-8-(x3)-8-9-9-9----|
----------------------------------------------|
----------------------------------------(x2)--|
----------------------------------------------|


-16-16-16-16-17-17-17------------------------|
---------------------------------------------|
---------------------------------------------|
---------------------------------------------|
---------------------------------------------|
---------------------------------------------|


-16-16-14-16-16-16------------------------------------------|
-------------------14-14-(x3)-16-16-16-16-(x3)-16-17-17-17--|
------------------------------------------------------------|
------------------------------------------------------------|
------------------------------------------------------------|
------------------------------------------------------------|

Comments appreciated!
Suggest correction
comments
print report bad tab
3 comments total.
0 reply
Kgrimes2 60 Jun 04, 2011 11:19 PM

Instead of
----11-----11-----12----11--------11--|
--------12-----12----12----12---9-----|
-13-----------------------------------|
--------------------------------------|
--------------------------------------|
--------------------------------------|
it should be
----12-----11-----13----12--------11--|
--------13-----13----13----13---9-----|
-14-----------------------------------|
--------------------------------------|
--------------------------------------|
--------------------------------------|
Sorry about that!

0 reply
HowsYouDoing 115 May 02, 2012 01:27 AM

i believe in the intro (and of course the outro as well) the 6th note that you would play (you put it as 9th fret on B string) i think is actually on the 6th fret of the G string

so it would go like

--------------------------------------------|
-9-9-7-9-9----------------------------------|
-----------6-6-6-(x2)-8-8-8-8-(x3)-8-9-9-9--|
--------------------------------------------|
--------------------------------------------|
--------------------------------------------|

this is some fantastic tablature by the way! 5 stars from me!

0 reply
ayreon77 17,805 Dec 28, 2015 02:47 PM

HowsYouDoing, yea your right this is how it's being played

guest
You may want to rate the tab now too:
select rating
Wanna post a correction for this tab? Suggest correction