Oops, an error
Loading. Please wait.

Holding Nothing Back Tab

version 2
version 2

Whole song

Interactive

2,765 views 9 this week
no commentswrite comment
1 2 3 4 5
3 more votes to show rating
add to favorites
launch autoscroll
font size
0
reset
how to read this tab
guitar tuner
Autoscroll
slow
fast
+/-
esc
set tempo
stop
Help us to improve Ultimate-Guitar.com Take our survey!
×
Author
Difficulty
intermediate
Jesus culture-holding nothing back (chris quilala;live from chicago)awakening


Intro 
e|------------------------------------------------------------------|
B|------------------------------------------------------------------x4
G|99-7-999--------99-7-999------------------------------------------|
D|---------7777-------------7777-999999999999999-1010---------------|
A|------------------------------------------------------------------|
E|------------------------------------------------------------------|


e|------------|
B|------------|
G|------------|im am chosen i am free
D|------------|
A|------------|
E|xxxxxxxxxxxx|


e|-----------------------|
B|-----------------------|
G|-----------------------|NOTHINGS GONNA HOLD ME BACK
D|7-10-9---7-10--9-------|
A|-----------------------|
E|-----------------------|

chorus E,D,C,D,C,D,D power chords
e|----------------------------------------------------------------|
B|----------------------------------------------------------------|
G|----------------------------------------------------------------|
D|999999999-7777777777-5555555555-7777777777----------------------|
A|777777777-5555555555-3333333333-5555555555----------------------|
E|----------------------------------------------------------------|



e|------------|
B|------------|
G|------------|
D|------------|
A|------------|
E|xxxxxxxxxxxx|


e|-----------------------|
B|-----------------------|
G|-----------------------|NOTHINGS GONNA HOLD ME BACK
D|7-10-9---7-10--9-------|
A|-----------------------|
E|-----------------------|



chorus E,D,C,D,C,D,D power chords
e|----------------------------------------------------------------|
B|----------------------------------------------------------------|
G|----------------------------------------------------------------|
D|999999999-7777777777-5555555555-7777777777----------------------|
A|777777777-5555555555-3333333333-5555555555----------------------|
E|----------------------------------------------------------------|


Intro 
e|------------------------------------------------------------------|
B|------------------------------------------------------------------|x2
G|99-7-999--------99-7-999------------------------------------------|
D|---------7777-------------7777-999999999999999-1010---------------|
A|------------------------------------------------------------------|
E|------------------------------------------------------------------|



ENDING
e|------------------------------------------------------------------------|x2
B|1717-15-171717------------1717-15-171717--------------------------------|
G|---------------14141414---------------14141414-161616161616-1717--------|
D|------------------------------------------------------------------------|
A|------------------------------------------------------------------------|
E|------------------------------------------------------------------------|
Suggest correction
Give kudos to tab author, rate the tab!
1 2 3 4 5
comments
print report bad tab
guest
You may want to rate the tab now too:
select rating
Wanna post a correction for this tab? Suggest correction