Oops, an error
Loading. Please wait.

Holy Spirit Tab

20,121 views 126 this week
no commentswrite comment
1 2 3 4 5
excellent!
x 12
add to favorites
launch autoscroll
font size
0
reset
how to read this tab
guitar tuner
Autoscroll
slow
fast
+/-
esc
set tempo
stop
Help us to improve Ultimate-Guitar.com Take our survey!
×
Author
Capo
2nd fret
Tabbed By: Tadd Steffner
Email: Taddsteffner@gmail.com

Revised as of 3/13/14

Capo 2 (Key of A) 

[Intro] (Goes through verse 1 and 2 until chorus)

  [C]                                   

e -------------------|-----------------------|
B -------------------|--1--------------------|
G -----------0-------|-----0-----0-----------| x2
D -----2--------2----|--------2-----2-----2--|
A --3-----3-------3--|-----------------3-----|
E -------------------|-----------------------|

  [F]
e -------------------|--0-------------------|
B -----------1-------|-----1-----1----------|
G -----2--------2----|--------------2-----2-| x2
D --3-----3-------3--|--------3--------3----|
A -------------------|----------------------|
E -------------------|----------------------|

[Chorus]
C
Holy Spirit You are welcome here
F                                  Am    
Come flood this place and fill the atmosphere
C 
Your glory God is what our hearts long for
F                      Am
To be overcome by Your presence Lord.

[Bridge]
C                               
Let us become more aware of Your presence
F
Let us experience the glory of Your goodness
Suggest correction
comments
print report bad tab
guest
You may want to rate the tab now too:
select rating
Wanna post a correction for this tab? Suggest correction