Oops, an error
Loading. Please wait.

In The River solo tab

6,904 views 90 this week
2 commentsread comments
1 2 3 4 5
x 11
add to favorites
×
Save as Personal and add changes to this tab that will be seen only by you. Learn more ›
×
You can save this tab as Personal to edit and correct it or add notes. All changes will be seen only by you. Learn more »
launch autoscroll
font size
0
reset
how to read this tab
guitar tuner
edit
Autoscroll
slow
fast
+/-
esc
set tempo
stop
Author
Artist: Jesus Culture
Album: Let It Echo
Song: In The River
 
Tabbed by: Frenchboy/magicberu


Key: Dm
Tuning: Standard


Main riff:

e|13-10-13-10----------------------------------------------------------------|
B|------------13-10-13-10----------10---------10-----------------------------|
G|------------------------12-10-12----10-12----------------------------------|
D|---------------------------------------------------------------------------|
A|---------------------------------------------------------------------------|
E|---------------------------------------------------------------------------|

e|13-10-13-10----------------------------------------------------------------|
B|------------13-10-13-10----------10----13--10------------------------------|
G|------------------------12-10-12----10-------------------------------------|
D|---------------------------------------------------------------------------|
A|---------------------------------------------------------------------------|
E|---------------------------------------------------------------------------|





************************************

| /   slide up
| \   slide down
| h   hammer-on
| p   pull-off
| ~   vibrato
| +   harmonic
| x   Mute note
| b   Bend
| pb  Pre-bend
| br  Bend release
| pbr Pre-bend release
| brb Bend release bend

************************************
Suggest correction
Creating personal tab
Creating personal tab
You can edit any tab online and save it as your Personal.

You can edit, replace or remove any tab part or add personal notes – all changes will be seen only by you.

Personal tabs can be accessed anytime from any device, even offline.
Learn more »
comments
print report bad tab
2 comments total.
0 reply
ayreon77 21,833 Feb 26, 2016 02:21 PM

Think it sound more like this with the pull off.
[code]
p
|13-10-13-10---p--------------------------------|
|------------13-10-13-10----------10---------10-|
|------------------------12-10-12----10-12------|
|-----------------------------------------------|
|-----------------------------------------------|
|-----------------------------------------------|

[/code]

0 reply
montyhobson 236 Mar 09, 2016 06:22 PM

This is fantastic 100%! For accurate chord chart of this tune you can copy and paste into PCO and/or tracks/stems for worship:
http://accuratechordcharts.blogspot.com/2016/03/intheriveraccuratechordchartsjesusculture.html

guest
You may want to rate the tab now too:
select rating
Wanna post a correction for this tab? Suggest correction