Oops, an error
Loading. Please wait.

King Of Glory Tab

22,245 views 1 this week
no commentswrite comment
1 2 3 4 5
x 5
add to favorites
launch autoscroll
font size
0
reset
how to read this tab
guitar tuner
Autoscroll
slow
fast
+/-
esc
set tempo
stop
Help us to improve Ultimate-Guitar.com Take our survey!
×
I give God all the glory.

Email:dirtbikr_88@hotmail.com
Key:Dm


Intro:
Dm,C  
This riff gets repeated about four times.
e|------------------------------------------------------------------------|
B|------------------------------------------------------------------------|
G|-----------7-----9--5---------------------------------------------------|
D|---------------------------7--------------------------------------------|
A|------------------------------------------------------------------------|
E|------------------------------------------------------------------------|




Verse
Dm,A#,F,Am

Play power chords on the 5th and fourth strings
e|------------------------------------------------------------------------|
B|-------------6----10----------------------------------------------------|
G|---7----3----5----9-----------------------------------------------------|
D|---7----3----3----7-----------------------------------------------------|
A|---5----1---------------------------------------------------------------|
E|------------------------------------------------------------------------|
note-use some left hand mutes




Chorus
Dm,A#,C,Dm,A#,C,A
You kind of alternate pick back and forth 
e|------------------------------------------------------------------------|
B|-----10--8---10----6----8---6-----8----6---8----10----6----8----5-------|
G|-------7--7----7----3----3---3-----5----5---5-----7----3----5----2------|
D|------------------------------------------------------------------------|
A|------------------------------------------------------------------------|
E|------------------------------------------------------------------------|
If you cant get it just alternate pick or play chords.
note-the exact amount to play is not give just order of notes
Suggest correction
comments
print report bad tab
guest
You may want to rate the tab now too:
select rating
Wanna post a correction for this tab? Suggest correction