Oops, an error
Loading. Please wait.

Light Of The World Tab

49 views 3 this week
1 commentread comment
1 2 3 4 5
x 5
add to favorites
launch autoscroll
font size
0
reset
how to read this tab
guitar tuner
Autoscroll
slow
fast
+/-
esc
set tempo
stop
Help us to improve Ultimate-Guitar.com Take our survey!
×
Author
Difficulty
novice
                                   /// Light Of The World by Jesus Culture ///
 
Tabbed by Izach Prince Paul
God bless.

Sequence of the Song:

Intro
Verse 1
Chorus 1
Interlude
Verse 2
Chorus 2
Solo
Bridge
Chorus 3
Outro

[Intro]

[Lead Guitar] (Time 0:00 - 0:18)

e|--------10-8---|
B|-----11--------|
G|--10-----------| x3
D|---------------|
A|---------------|
E|---------------|

[Rhythm Guitar 1] (Time 0:00 - 0:15)
e|----------------------------------|
B|----------------------------------|
G|----3---3---3---3---3---3---3---3-|
D|--5---5---3---3---3---3---3---3---| x4
A|----------------------------------|
E|----------------------------------|

(Time 0:16 - 0:17)
e|-------------------|
B|-------------------|
G|----3---3---3---3--|
D|--5---5---3---3----| x1
A|-------------------|
E|-------------------|

[Verse 1]

[Rhythm Guitar 1] (Time 0:18 - 0:20)
e|---------------------------|
B|---------------------------|
G|----3---3---3---3---3---3--|
D|--3---3---3---3---5---5----| x1
A|---------------------------|
E|---------------------------|

[Rhythm Guitar 1] (Time 0:21 - 0:29)
e|-----------------------------------|
B|-----------------------------------|
G|----3---3---3---3---3---3---3---3--|
D|--3---3---3---3---3---3---5---5----| x2
A|-----------------------------------|
E|-----------------------------------|

[Rhythm Guitar 1] (Time 0:30 - 0:35)
e|-----------------------------------------------------------|
B|-----------------------------------------------------------|
G|----3---3---3---3---3---3---3---3---3---3---5---5---5---5--|
D|--3---3---3---3---3---3---3---3---3---3---3---3---3---3----| x1
A|-----------------------------------------------------------|
E|-----------------------------------------------------------|

[Rhythm Guitar 1] (Time 0:36 - 0:40)
e|----------------------------------------------|
B|----------------------------------------------|
G|----2---2---2---2---2---2---2---2-------------|
D|--3---3---3---3---3---3---3---3---------------| x1
A|----------------------------------------------|
E|----------------------------------------------|

[Rhythm Guitar 2] (Time 0:32 - 0:39)
    Cm          Bb/D        F
e|--8----|  e|-------|  e|-------|
B|--8----|  B|--6----|  B|--6----|
G|--8----|  G|--7----|  G|--5----|
D|--10---|  D|--8----|  D|--3----|
A|-------|  A|-------|  A|-------|
E|-------|  E|-------|  E|-------|

[Chorus 1]

[Rhythm Guitar 2] (Time 0:40 - 0:54)
Light of the world even death could not contain
    Bb          F           Eb          Eb          Bb          F
e|--6----|  e|-------|  e|--6----|  e|--6----|  e|--6----|  e|-------|
B|--6----|  B|--6----|  B|--8----|  B|--8----|  B|--6----|  B|--6----|
G|--7----|  G|--5----|  G|--8----|  G|--8----|  G|--7----|  G|--5----|
D|--8----|  D|--3----|  D|--8----|  D|--8----|  D|--8----|  D|--3----|
A|-------|  A|-------|  A|--6----|  A|--6----|  A|-------|  A|-------|
E|-------|  E|-------|  E|-------|  E|-------|  E|-------|  E|-------|

Dark - ness fell, was defeated on that day
    Bb          F           Eb          Eb          Bb          F
e|--6----|  e|-------|  e|--6----|  e|--6----|  e|--6----|  e|-------|
B|--6----|  B|--6----|  B|--8----|  B|--8----|  B|--6----|  B|--6----|
G|--7----|  G|--5----|  G|--8----|  G|--8----|  G|--7----|  G|--5----|
D|--8----|  D|--3----|  D|--8----|  D|--8----|  D|--8----|  D|--3----|
A|-------|  A|-------|  A|--6----|  A|--6----|  A|-------|  A|-------|
E|-------|  E|-------|  E|-------|  E|-------|  E|-------|  E|-------|


[Interlude] (Time 0:55 - 1:05)

[Lead Guitar]
e|--------10-8---|
B|-----11--------|
G|--10-----------| x2
D|---------------|
A|---------------|
E|---------------|

[Rhythm Guitar 1]
e|----------------------------------|
B|----------------------------------|
G|----3---3---3---3---3---3---3---3-|
D|--5---5---3---3---3---3---3---3---| x2
A|----------------------------------|
E|----------------------------------|

[Verse 2] (Time 1:06 - 1:19)

[Lead Guitar]
e|--------10-8---|
B|-----11--------|
G|--10-----------| x1
D|---------------|
A|---------------|
E|---------------|

[Rhythm Guitar 1]
e|----------------------------------|
B|----------------------------------|
G|----3---3---3---3---3---3---3---3-|
D|--5---5---3---3---3---3---3---3---| x4
A|----------------------------------|
E|----------------------------------|

[Chorus 2] (Time 1:20 - 1:48)

[Rhythm Guitar 2] 

Light of the world even death could not contain
    Bb          F           Eb          Eb          Bb          F
e|--6----|  e|-------|  e|--6----|  e|--6----|  e|--6----|  e|-------|
B|--6----|  B|--6----|  B|--8----|  B|--8----|  B|--6----|  B|--6----|
G|--7----|  G|--5----|  G|--8----|  G|--8----|  G|--7----|  G|--5----|
D|--8----|  D|--3----|  D|--8----|  D|--8----|  D|--8----|  D|--3----| 
A|-------|  A|-------|  A|--6----|  A|--6----|  A|-------|  A|-------|
E|-------|  E|-------|  E|-------|  E|-------|  E|-------|  E|-------|

Dark - ness fell, was defeated on that day
    Bb          F           Eb          Eb          Bb          F
e|--6----|  e|-------|  e|--6----|  e|--6----|  e|--6----|  e|-------|
B|--6----|  B|--6----|  B|--8----|  B|--8----|  B|--6----|  B|--6----|
G|--7----|  G|--5----|  G|--8----|  G|--8----|  G|--7----|  G|--5----|
D|--8----|  D|--3----|  D|--8----|  D|--8----|  D|--8----|  D|--3----|
A|-------|  A|-------|  A|--6----|  A|--6----|  A|-------|  A|-------|
E|-------|  E|-------|  E|-------|  E|-------|  E|-------|  E|-------|

He   is   alive He has risen from the grave
    Bb          F           Eb          Eb          Bb          F
e|--6----|  e|-------|  e|--6----|  e|--6----|  e|--6----|  e|-------|
B|--6----|  B|--6----|  B|--8----|  B|--8----|  B|--6----|  B|--6----|
G|--7----|  G|--5----|  G|--8----|  G|--8----|  G|--7----|  G|--5----| 
D|--8----|  D|--3----|  D|--8----|  D|--8----|  D|--8----|  D|--3----|
A|-------|  A|-------|  A|--6----|  A|--6----|  A|-------|  A|-------|
E|-------|  E|-------|  E|-------|  E|-------|  E|-------|  E|-------|

All our sins are washed away
    Eb          Bb          F
e|--6----|  e|--6----|  e|-------|
B|--8----|  B|--6----|  B|--6----|
G|--8----|  G|--7----|  G|--5----|
D|--8----|  D|--8----|  D|--3----|
A|--6----|  A|-------|  A|-------|
E|-------|  E|-------|  E|-------|

Light of the world...

[Solo] (Time 1:49 - 2:04)

He is alive...
[Lead Guitar]
e|--13---6/10---11-12\5---6---13---6/10---11-12\5---6---|
B|------------------------------------------------------|
G|------------------------------------------------------|
D|------------------------------------------------------|
A|------------------------------------------------------|
E|------------------------------------------------------|

[Bridge] (Time 2:20 - 2:35)

[Rhythm Guitar 2]

He pulled us from the depths of darkness
    Eb
e|--6----|
B|--8----|
G|--8----|
D|--8----|
A|--6----|
E|-------|

Brought us into glorious light
    F
e|-------|
B|--6----|
G|--5----|
D|--3----|
A|-------|
E|-------|

He broke the power of sin and freed us
    Eb
e|--6----|
B|--8----|
G|--8----|
D|--8----|
A|--6----|
E|-------|
   
Gave us life
    F
e|-------|
B|--6----|
G|--5----|
D|--3----|
A|-------|
E|-------|

[Chorus 3] (Time 2:36 - 3:03)

[Rhythm Guitar 2]

Light of the world even death could not contain
    Bb          F           Eb          Eb          Bb          F
e|--6----|  e|-------|  e|--6----|  e|--6----|  e|--6----|  e|-------|
B|--6----|  B|--6----|  B|--8----|  B|--8----|  B|--6----|  B|--6----|
G|--7----|  G|--5----|  G|--8----|  G|--8----|  G|--7----|  G|--5----|
D|--8----|  D|--3----|  D|--8----|  D|--8----|  D|--8----|  D|--3----| 
A|-------|  A|-------|  A|--6----|  A|--6----|  A|-------|  A|-------|
E|-------|  E|-------|  E|-------|  E|-------|  E|-------|  E|-------|

Dark - ness fell, was defeated on that day
    Bb          F           Eb          Eb          Bb          F
e|--6----|  e|-------|  e|--6----|  e|--6----|  e|--6----|  e|-------|
B|--6----|  B|--6----|  B|--8----|  B|--8----|  B|--6----|  B|--6----|
G|--7----|  G|--5----|  G|--8----|  G|--8----|  G|--7----|  G|--5----|
D|--8----|  D|--3----|  D|--8----|  D|--8----|  D|--8----|  D|--3----|
A|-------|  A|-------|  A|--6----|  A|--6----|  A|-------|  A|-------|
E|-------|  E|-------|  E|-------|  E|-------|  E|-------|  E|-------|

He   is   alive He has risen from the grave
    Bb          F           Eb          Eb          Bb          F
e|--6----|  e|-------|  e|--6----|  e|--6----|  e|--6----|  e|-------|
B|--6----|  B|--6----|  B|--8----|  B|--8----|  B|--6----|  B|--6----|
G|--7----|  G|--5----|  G|--8----|  G|--8----|  G|--7----|  G|--5----| 
D|--8----|  D|--3----|  D|--8----|  D|--8----|  D|--8----|  D|--3----|
A|-------|  A|-------|  A|--6----|  A|--6----|  A|-------|  A|-------|
E|-------|  E|-------|  E|-------|  E|-------|  E|-------|  E|-------|

All our sins are washed away
    Eb          Bb          F
e|--6----|  e|--6----|  e|-------|
B|--8----|  B|--6----|  B|--6----|
G|--8----|  G|--7----|  G|--5----|
D|--8----|  D|--8----|  D|--3----|
A|--6----|  A|-------|  A|-------|
E|-------|  E|-------|  E|-------|

Light of the world...

[Outro] (Time 3:04 - 3:22

[Lead Guitar]
e|--13---6/10---11-12\5---6---13---6/10---11-12\5-------|
B|------------------------------------------------------|
G|------------------------------------------------------|
D|------------------------------------------------------|
A|------------------------------------------------------|
E|------------------------------------------------------|

e|--11---10-10---5-5---|
B|--11---11-11---6-6---|
G|---------------------|
D|---------------------|
A|---------------------|
E|---------------------|


************************************


| /   Slide up
| \   Slide down

************************************
Suggest correction
comments
print report bad tab
1 comment total.
0 reply
helpee17 10 Oct 17, 2016 04:29 PM

Great Job Mate!

guest
You may want to rate the tab now too:
select rating
Wanna post a correction for this tab? Suggest correction