Oops, an error
Loading. Please wait.

Light Of Your Face Tab

version 1
version 1

Whole song

14,104 views 12 this week
no commentswrite comment
1 2 3 4 5
please rate
add to favorites
launch autoscroll
font size
0
reset
how to read this tab
guitar tuner
Autoscroll
slow
fast
+/-
esc
set tempo
stop
Help us to improve Ultimate-Guitar.com Take our survey!
×
Author
Difficulty
intermediate
-----------------------------------------------------------------
Light of Your Face - Jesus Culture
-----------------------------------------------------------------
Tabbed by:Paul(XVyKariousX)
Email:pauljamilkowski@hotmail.com

Tuning:Standard (E-A-D-G-B-E)

This is the cover of Misty Edwards' song, from the album "Consumed" by Jesus Culture. I 
it in the order that their lead guitarist plays it. Some of it may be just a little off. 
so, too bad! Took me forever to write it :P

Intro/Verse Riff 1
e|---------------------------------------------------------------|
B|---------------------------------------------------------------|
G|-----------8---7---5---5/7---5/7---------8---7---5---5---4---5-|
D|-----5h7---------------------------5h7-------------------------|
A|---------------------------------------------------------------|
E|---------------------------------------------------------------|

Verse Riff 2
e|---------------------------------------------------------------|
B|-----13---12/5------------13---12/15---------------------------|
G|---------------------------------------------------------------|
D|---------------------------------------------------------------|
A|---------------------------------------------------------------|
E|---------------------------------------------------------------|

Verse Riff 1
e|---------------------------------------------------------------|
B|---------------------------------------------------------------|
G|-----------8---7---5---5/7---5/7---------8---7---5---5---4---5-|
D|-----5h7---------------------------5h7-------------------------|
A|---------------------------------------------------------------|
E|---------------------------------------------------------------|

Post-verse
e|---------------------------------------------------------------|
B|---------------------------------------------------------------|
G|-----------8-7-8-----9-7-----7-5-7/9---5---4---5---7--(9*)-----|(* played
D|-----5h7-----------7-------7-----------------------------------| 2nd time
A|---------------------------------------------------------------|through)
E|---------------------------------------------------------------|

Pre-chorus riff
e|---------------------------------------------------------------|
B|---13(8x)---12(8x)/5(16x)---13(8x)---12(8x)---15(13x)-17(3x)---|
G|---------------------------------------------------------------|
D|---------------------------------------------------------------|
A|---------------------------------------------------------------|
E|---------------------------------------------------------------|

e|----------------------------12(8x)---10(24x)*------------------|(* slight
B|---13(8x)---12(8x)/5(16x)---13(8x)---13(24x)*------------------|bend starts
G|---------------------------------------------------------------|at 9th
D|---------------------------------------------------------------|pick)
A|---------------------------------------------------------------|
E|---------------------------------------------------------------|

Chorus
e|------------------------------------------------------------------|(*played
B|---------------------------------------------------------------|2-|nd time in
G|-----------8-7-8-----9-7-----7-5-7/9---5---4---5---4(7*)----------|place of 4)
D|-----5h7-----------7-------7--------------------------------------|Played 2x,
A|------------------------------------------------------------------|then goes
E|---------------------------------------------------------------|1-| octave up

e|------------13-12-13------12-10------10-8-10/12---8---7---8---10-|
B|-----8h11--------------10---------10-----------------------------|
G|-----------------------------------------------------------------|
D|-----------------------------------------------------------------|
A|-----------------------------------------------------------------|
E|-----------------------------------------------------------------|

Pre-chorus riff
e|---------------------------------------------------------------|
B|---13(8x)---12(8x)/5(16x)---13(8x)---12(8x)---15(12x)-17(4x)---|
G|---------------------------------------------------------------|
D|---------------------------------------------------------------|
A|---------------------------------------------------------------|
E|---------------------------------------------------------------|

e|----------------------------12(8x)---10(24x)*------------------|(* slight
B|---13(8x)---12(8x)/5(16x)---13(8x)---13(24x)*------------------|bend starts
G|---------------------------------------------------------------|at 9th
D|---------------------------------------------------------------|pick)
A|---------------------------------------------------------------|
E|---------------------------------------------------------------|

Verse Riff 1
e|---------------------------------------------------------------|
B|---------------------------------------------------------------|
G|-----------8---7---5---5/7---5/7---------8---7---5---5---4---5-|
D|-----5h7---------------------------5h7-------------------------|
A|---------------------------------------------------------------|
E|---------------------------------------------------------------|

Post-verse
e|---------------------------------------------------------------|
B|---------------------------------------------------------------|
G|-----------8-7-8-----9-7-----7-5-7/9---5---4---5---7--(9*)-----|(* played
D|-----5h7-----------7-------7-----------------------------------| 2nd time
A|---------------------------------------------------------------|through)
E|---------------------------------------------------------------|

Pre-chorus riff
e|--------------------------------------------------------------------|
B|---13(8x)---12(8x)/5(16x)---13(8x)---12(8x)---15(8x)-17(4x)-15(4x)--|
G|--------------------------------------------------------------------|
D|--------------------------------------------------------------------|
A|--------------------------------------------------------------------|
E|--------------------------------------------------------------------|

e|----------------------------12(8x)---10(24x)*------------------|(* slight
B|---13(8x)---12(8x)/5(16x)---13(8x)---13(24x)*------------------|bend starts
G|---------------------------------------------------------------|at 9th
D|---------------------------------------------------------------|pick)
A|---------------------------------------------------------------|
E|---------------------------------------------------------------|

Chorus
e|------------------------------------------------------------------|(*played
B|---------------------------------------------------------------|2-|nd time in
G|-----------8-7-8-----9-7-----7-5-7/9---5---4---5---4(7*)----------|place of 4)
D|-----5h7-----------7-------7--------------------------------------|Played 2x,
A|------------------------------------------------------------------|then goes
E|---------------------------------------------------------------|1-| octave up

e|------------13-12-13------12-10------10-8-10/12---8---7---8---10-|
B|-----8h11--------------10---------10-----------------------------|
G|-----------------------------------------------------------------|
D|-----------------------------------------------------------------|
A|-----------------------------------------------------------------|
E|-----------------------------------------------------------------|

Pre-chorus riff (Played twice to end)
e|--------------------------------------------------------------------|
B|---13(8x)---12(8x)/5(16x)---13(8x)---12(8x)---15(8x)-17(4x)-15(4x)--|
G|--------------------------------------------------------------------|
D|--------------------------------------------------------------------|
A|--------------------------------------------------------------------|
E|--------------------------------------------------------------------|

e|----------------------------12(8x)---10(24x)*------------------|(* slight
B|---13(8x)---12(8x)/5(16x)---13(8x)---13(24x)*------------------|bend starts
G|---------------------------------------------------------------|at 9th
D|---------------------------------------------------------------|pick)
A|---------------------------------------------------------------|
E|---------------------------------------------------------------|


| /  slide up
| \  slide down
| h  hammer-on
| p  pull-off
| ~  vibrato
| +  harmonic
| x  Mute note
Suggest correction
Give kudos to tab author, rate the tab!
1 2 3 4 5
comments
print report bad tab
guest
You may want to rate the tab now too:
select rating
Wanna post a correction for this tab? Suggest correction