Oops, an error
Loading. Please wait.

Light Of Your Face Tab

version 2
version 2

Whole song

8,943 views 12 this week
1 commentread comment
1 2 3 4 5
excellent!
x 5
add to favorites
launch autoscroll
font size
0
reset
how to read this tab
guitar tuner
Autoscroll
slow
fast
+/-
esc
set tempo
stop
Help us to improve Ultimate-Guitar.com Take our survey!
×
----------------------------------------------------------------------------
                         Light of Your Face - Jesus Culture
----------------------------------------------------------------------------
Tabbed by:Bur-d-mac
Email:

Tuning:S
Intro:
e|--------------------------------------------------------------------------|
B|-----6-5---------------------------------------6-5------------------------|
G|---------5-5h7---5h7-------------------------------5-5-4-5/7--------------|
D|-5h7-------------------------------------5h7------------------------------|
A|--------------------------------------------------------------------------|
E|--------------------------------------------------------------------------|
Verse:
e|--------------------------------------------------------------------------|
B|--13---12---5--------------13---12---5---6--------------------------------|
G|--------------------------------------------------------------------------|
D|--------------------------------------------------------------------------|
A|--------------------------------------------------------------------------|
E|--------------------------------------------------------------------------|
Turn:                                                  end on this last time
e|--------------------------------------------------------------------------|
B|----------6-5-6---6-5--------------5-------------------------(5)----------|
G|-5-4-------------------7--7-5-5h7-----5-4-5-7-----------------------------|
D|------7-------------------------------------------------------------------|
A|--------------------------------------------------------------------------|
E|--------------------------------------------------------------------------|
High part:
e|--------------------------------------------------------------------------|
B|--13////////12////////5////////////////13////////12////////15///b17/////--|
G|--------------------------------------------------------------------------|
D|--------------------------------------------------------------------------|
A|--------------------------------------------------------------------------|
E|--------------------------------------------------------------------------|

e|-----------------------------------12///////10///////13///////////--------|
B|-13///////12///////5///////////////13///////12///////15///b17/////--------|
G|--------------------------------------------------------------------------|
D|--------------------------------------------------------------------------|
A|--------------------------------------------------------------------------|
E|--------------------------------------------------------------------------|
Turn 2nd time:
e|-----------13-12-13---13-12-------------12--------------------------------|
B|-13-12---------------------15--13-13h15-----13-12-13-15-------------------|
G|-------14-----------------------------------------------------------------|
D|--------------------------------------------------------------------------|
A|--------------------------------------------------------------------------|
E|--------------------------------------------------------------------------|
Listen to the song to find out where each part goes: God Bless

************************************

| /   slide up
| \   slide down
| h   hammer-on
| p   pull-off
| ~   vibrato
| +   harmonic
| x   Mute note
| b   Bend
| pb  Pre-bend
| br  Bend release
| pbr Pre-bend release
| brb Bend release bend

************************************
Suggest correction new What's this?
You can suggest a correction to this tab. Community and Mods will review your correction and vote to approve or reject it.
comments
print report bad tab
1 comment total.
0 reply
USAR Nick 151 wrote on July 14 2014, 01:51 am

Pretty good but the chorus low and high aren't correct..but good job on the intro and bridge/instrumental lead, I'll try to tab it out what I just learned

guest
You may want to rate the tab now too:
select rating
Please do not post tabs as comments. Select "correction" instead!