Oops, an error
Loading. Please wait.

Never Gonna Stop Singing Live bass

835 views 9 this week
no commentswrite comment
1 2 3 4 5
x 4
add to favorites
×
Save as Personal and add changes to this tab that will be seen only by you. Learn more ›
×
You can save this tab as Personal to edit and correct it or add notes. All changes will be seen only by you. Learn more »
launch autoscroll
font size
0
reset
guitar tuner
edit
Autoscroll
slow
fast
+/-
esc
set tempo
stop
Author
Difficulty
-----------------------------------------------------------------------------
                                          Artist - Jesus Culture
                                         ************************
                                   Song - Never Gonna Stop Singing (live)   
                                  ****************************************
                                        Album - Let It Echo (2016)   
                                       ****************************
                                           Tabbed By - Ayreon77
                                          **********************
-----------------------------------------------------------------------------
Tuning = Standard



00:09
INTRO
******
G|------------|------------|------------|------------|------------|------------|------------|------------|
D|------------|------------|------------|------------|------------|------------|------------|------------|
A|-8--8-8-8-8-|-8--8-8-8-8-|-8--8-8-8-8-|------------|-5--5-5-5-5-|-5--5-5-5-5-|-5--5-5-5-5-|------------|
E|------------|------------|------------|-8--8-8-8-8-|------------|------------|------------|-6--6-6-6-6-|


-------------------------
00:17
VERSE 1
********
  You called us into darkness............
G|------------|------------|------------|------------|------------|------------|------------|------------|
D|------------|------------|------------|------------|------------|------------|------------|------------|
A|-8--8-8-8-8-|-8--8-8-8-8-|-8--8-8-8-8-|------------|-5--5-5-5-5-|-5--5-5-5-5-|-5--5-5-5-5-|------------|
E|------------|------------|------------|-8--8-8-8-8-|------------|------------|------------|-6--6-6-6-6-|X4

 end of the 4th one do this
G|------------|-------------------|
D|------------|--s----------------|
A|-5--5-5-5-5-|-5\13--13-13-13-13-|
E|------------|-------------------|


-------------------------
CHORUS
*******
  We're gonna lift You higher...........
G|----------|------------|------------|   |----------|------------|-------------------|
D|----------|------------|------------|   |----------|------------|--s----------------|
A|-8-8--8-8-|-5--5-5-5-5-|------------|   |-8-8--8-8-|-5--5-5-5-5-|-5\13--13-13-13-13-|
E|----------|------------|-6--6-6-6-6-|X3 |----------|------------|-------------------|


-------------------------
01:09
BREAK
******
G|------------|------------|------------|-----------|-----------|-----------|------------|-------------------|
D|------------|------------|------------|-----------|-----------|-----------|------------|--s----------------|
A|-8--8-8-8-8-|-8--8-8-8-8-|-8--8-8-8-8-|-----------|-5--5-5-5-5|-5--5-5-5-5|-5--5-5-5-5-|-5\13--13-13-13-13-|
E|------------|------------|------------|-8--8-8-8-8|-----------|-----------|------------|-------------------|


-------------------------
01:17
VERSE 2
********
  Set free no longer bound in chains
G|------------|------------|------------|------------|------------|------------|------------|------------|
D|------------|------------|------------|------------|------------|------------|------------|------------|
A|-8--8-8-8-8-|-8--8-8-8-8-|-8--8-8-8-8-|------------|-5--5-5-5-5-|-5--5-5-5-5-|-5--5-5-5-5-|------------|
E|------------|------------|------------|-8--8-8-8-8-|------------|------------|------------|-6--6-6-6-6-|X2

Bass stops

01:43
G|-----------------|-----------------|----------------|------------------|-----------------|-----------------|
D|-----------------|-----------------|----------------|------------------|-----------------|-----------------|
A|-8-8-8-8-8-8-8-8-|-8-8-8-8-8-8-8-8-|-8-8-8-8-8-8-8-8|--s---------------|-5-5-5-5-5-5-5-5-|-5-5-5-5-5-5-5-5-|
E|-----------------|-----------------|----------------|-6\8-8-8-8-8-8-8-8|-----------------|-----------------|


G|-----------------|-----------|
D|-----------------|-8-8-8-8-8-|
A|-5-5-5-5-5-5-5-5-|-----------|
E|-----------------|-----------|


-------------------------
01:42
CHORUS
*******
  We're gonna lift You higher...........
G|----------|------------|------------|
D|----------|------------|------------|
A|-8-8--8-8-|-5--5-5-5-5-|------------|
E|----------|------------|-6--6-6-6-6-|X8


-------------------------
02:26
INSTRUMENTAL - No Bass
*************

-------------------------
02:35
BRIDGE
*******
Bass comes in at 02:52                     on the 4th one do this
G|----------|------------|------------|   |------------|---|
D|----------|------------|------------|   |------------|---|
A|-8-8--8-8-|-5--5-5-5-5-|------------|   |-5--5-5-5-5-|---|
E|----------|------------|-6--6-6-6-6-|X4 |------------|-6-|


-------------------------
03:09
CHORUS
*******
  Higher, higher...........
G|----------|------------|------------|----------|------------|-------------------|
D|----------|------------|------------|----------|------------|--s----------------|
A|-8-8--8-8-|-5--5-5-5-5-|------------|-8-8--8-8-|-5--5-5-5-5-|-5\13--13-13-13-13-|
E|----------|------------|-6--6-6-6-6 |----------|------------|-------------------|X2
03:26
    Higher, higher...........
G|----------|------------|------------|----------|------------|-------------------|
D|----------|------------|------------|----------|------------|--s----------------|
A|-8-8--8-8-|-5--5-5-5-5-|------------|-8-8--8-8-|-5--5-5-5-5-|-5\13--13-13-13-13-|
E|----------|------------|-6--6-6-6-6 |----------|------------|-------------------|X2


-------------------------
OUTRO
******
G|-----------------------------------------------------------------------------------|
D|-----------------------------------------------------------------------------------|
A|-8-8-8-8-8-8-8-8-8-8-8-8-8-8-8-8-8-8-8-8-8-8-8-8-8-8-8-8-8-8-8-8-8-8-8-8-8-8-8-8-8-|
E|-----------------------------------------------------------------------------------|



ENJOY.........
Suggest correction
Creating personal tab
Creating personal tab
You can edit any tab online and save it as your Personal.

You can edit, replace or remove any tab part or add personal notes – all changes will be seen only by you.

Personal tabs can be accessed anytime from any device, even offline.
Learn more »
comments
print report bad tab
guest
You may want to rate the tab now too:
select rating
Wanna post a correction for this tab? Suggest correction