Oops, an error
Loading. Please wait.

Power In The Cross chords

2,938 views 27 this week
no commentswrite comment
1 2 3 4 5
x 8
add to favorites
×
Save as Personal and add changes to this tab that will be seen only by you. Learn more ›
×
You can save this tab as Personal to edit and correct it or add notes. All changes will be seen only by you. Learn more »
launch autoscroll
font size
0
reset
transpose
0
reset
display chords
guitar tuner
edit
Autoscroll
slow
fast
+/-
esc
set tempo
stop
Strumming
There is no strumming pattern for this song yet. and get +5 IQ
-----------------------------------------------------------------------------
                                          Artist - Jesus Culture
                                         ************************
                                        Song - Power In The Cross 
                                       ***************************
                                       Album - Let It Echo (2016) 
                                      ***************************
                                          Tabbed By - Ayreon77
                                         **********************
-----------------------------------------------------------------------------
Tuning = Standard


**************
CAPO 4th FRET
**************

---------------------------
SMALL INTRO TAB - Think its 2 guitars
****************
  D                           G                     
e|-----0-1-----2-----2-----2-|-------0-----0-----0-|
B|---3-------3-----3-----3---|-----3-----3-----3---|
G|-2-------2-----2-----2-----|-0-2-----2-----2-----|
D|---------------------------|---------------------|
A|---------------------------|---------------------|
E|---------------------------|---------------------|X2

---------------------------
VERSE 1
********
D
We all stand amazed 
G
In awe of amazing grace
Em                             G
The divide has been erased, we thank You
    D
All sin is washed away 
G
You alone have saved the day
Em                         G
We are forever changed, we thank You
A                      Em     G
Let every heart, every tongue
Em           A          Bm    A
Come sing of Your redemption 

---------------------------
CHORUS
*******
                     G
There's power in the Cross
                      D
Where You proved Your love
              Bm                    G
The only sacrifice strong enough to save us
                  G
You rose in victory to let the whole world 
D                   Em
See Love has made a way
              G
Hope is never lost
                     D
There's power in the Cross
    G                  D
Whoaaa There's power in the cross

G

---------------------------
VERSE 2
********
D
Now we are made alive
G
In freedom like a fire
Em                         G
Burning with one desire we thank You
D
We will spend all our lives
G
Filled with the hope of Christ
Em                           G
Who paid the final price, we thank You
A                      Em     G
Let every heart, every tongue
Em           A          Bm    A
Come sing of Your redemption 

---------------------------
CHORUS
*******
                     G
There's power in the Cross
                      D
Where You proved Your love
              Bm                    G
The only sacrifice strong enough to save us
                  G
You rose in victory to let the whole world 
D                   Em
See Love has made a way
              G
Hope is never lost
                     D
There's power in the Cross

---------------------------
ELECTRIC SOLO NOTES PLAYED THROUGH THE BRIDGE
e|-------------------------------------------------------------------------------------------|
B|-------------------------------------------------------9--9--11--11--11--11----------9~~~~-|
G|-----8--8--8--8--8--8--10--10--11--11--11--11--11--11--------------------------------------|
D|-8---------------------------------------------------------------------------11~~~~--------|
A|-------------------------------------------------------------------------------------------|
E|-------------------------------------------------------------------------------------------|
                                              
BRIDGE                                      
*******          G                            
Strong enough to save us                      
                 Em                        
strong enough to save us                       
                 D                      A      
strong enough to save, strong enough to save 
                 G
Strong enough to save us
                 Em
strong enough to save us
                 D                      A
strong enough to save, strong enough to save 

---------------------------
ELECTRIC SOLO NOTES PLAYED THROUGH THE CHORUS AND BEYOND
e|-------------------------------------------------------------------------------------------------------|
B|-------------------------------------------------------------------------------------------------------|
G|-8--8--8--8--8--8--10--10--11--11--11--11-------11--11--11--11--11--11--11--11--8--8--8--8--8--8--8--8-|
D|-------------------------------------------8-----------------------------------------------------------|
A|-------------------------------------------------------------------------------------------------------|
E|-------------------------------------------------------------------------------------------------------|


e|------------------------------------------------------------------------------------------------------|
B|------------------------------------------------------------------------------------------------------|
G|-8--8--8--8--8--8--10--10--11--11--11--11--------------------------8--8--8--8-------------------------|
D|-------------------------------------------8--8--8--8--9--9--9--9--------------8--8--8--8--8--8--8--8-|
A|------------------------------------------------------------------------------------------------------|
E|------------------------------------------------------------------------------------------------------|


e|---------------------------|
B|---------------------------|
G|-------------8--8--8--8----|
D|-9--9--9--9--------------8-|
A|---------------------------|
E|---------------------------|

CHORUS
*******
                     G
There's power in the Cross
                      D
Where You proved Your love
              Bm                    G
The only sacrifice strong enough to save us
                  G
You rose in victory to let the whole world 
D                   Em
See Love has made a way
              G
Hope is never lost
                     D
There's power in the Cross

Your love
                   Em
Oh Love has made a way 
              G
Hope is never lost
                     D
There's power in the Cross


Fade out with the chorus again.



ENJOY...........
Suggest correction
Creating personal tab
Creating personal tab
You can edit any tab online and save it as your Personal.

You can edit, replace or remove any tab part or add personal notes – all changes will be seen only by you.

Personal tabs can be accessed anytime from any device, even offline.
Learn more »
comments
print report bad tab
guest
You may want to rate the tab now too:
select rating
Wanna post a correction for this tab? Suggest correction