Oops, an error
Loading. Please wait.

The Anthem Tab

version 1
version 1

Whole song

5,573 views 15 this week
no commentswrite comment
1 2 3 4 5
accurate
x 5
add to favorites
launch autoscroll
font size
0
reset
how to read this tab
guitar tuner
Autoscroll
slow
fast
+/-
esc
set tempo
stop
Help us to improve Ultimate-Guitar.com Take our survey!
×
Contributor
Difficulty
intermediate
The Anthem- Jesus Culture

1st verse and 1st chorus: the chords are sustained for about 4 beats
e-----------------------------------------------------------'
b-----------------------------------------------------------'
g--9------5------12-----7-----------------------------------'
d--9------5------12-----7-----------------------------------'
a--7------3------10-----5-----------------------------------'
e-----------------------------------------------------------'

1st solo:
    ^^^^^^^^^^^^^^^^^^^^
    slight bend
e-----------------------------------------------------------------------'
b-----------------------------------------------------------------------'
g---7----------------------7--5-------2b4-2---7--12--11--9--7-----------'
d-----------------------------------------------------------------------'
a-----------------------------------------------------------------------'
e-----------------------------------------------------------------------'
    ^^^^^^^^^^^^^^^^^^^^
e-----------------------------------------------------------------------'
b-----------------------------------------------------------------------'
g---7----------------------7--5-------7b8-7b8--2------------------------'
d-----------------------------------------------------------------------'
a-----------------------------------------------------------------------'
e-----------------------------------------------------------------------'
2nd verse: the little fiddly bits are just improvisation on these chords and it dosent 
matter too much if you dont play them.
e-----------------------------------------------------------'
b-----------------------------------------------------------'
g--9------5------12-----7-----------------------------------'
d--9------5------12-----7-----------------------------------'
a--7------3------10-----5-----------------------------------'
e-----------------------------------------------------------'

2nd chorus:

e----------------------------------------------------------------'x2
b----------------------------------------------------------------'
g------------9-------------5---------------12-------------7------'
d-----9---------------5------------12--------------7-------------'
a--7-----7--------3-----3-------10-----10-------5------5---------'
e----------------------------------------------------------------'
block chords this time with distortion and faster picked.
e-----------------------------------------------------------'x2
b-----------------------------------------------------------'
g--9------5------12-----7-----------------------------------'
d--9------5------12-----7-----------------------------------'
a--7------3------10-----5-----------------------------------'
e-----------------------------------------------------------'


2nd solo
e------7--10--12-0-0-----------7--10--12--0-0--------------7--10--12--0--0-------|
b---0-----------------------0-------------------------0--------------------------|
g--------------------------------------------------------------------------------|
d--------------------9--9-----------------------9--9-----------------------------|
a--------------------------------------------------------------------------9--9--|
e--------------------------------------------------------------------------------|

---7--10--------------------------------'
------------15b17--15b17--15b17---------'
----------------------------------------'
----------------------------------------'
----------------------------------------'
----------------------------------------'


This is the anthem of our generation...
   .      .      .      .       .
e-----------------------------------------------------------------'x2
b-----------------------------------------------------------------'
g--9------5------12-----7-------7-9-11-12-------------------------'
d--9------5------12-----7-------7-9-11-12-------------------------'
a--7------3------10-----5-------5-7- 9-10-------------------------'
e-----------------------------------------------------------------'

then it just plays the chords
e-----------------------------------------------------------'
b-----------------------------------------------------------'
g--9------5------12-----7-----------------------------------'
d--9------5------12-----7-----------------------------------'
a--7------3------10-----5-----------------------------------'
e-----------------------------------------------------------'

3rd solo
e-----------------------------------------------------------------------------------------'
b------------------------------------------------------------------------------10--12-----'
g---7--7--7--7--7--5-5--5-4h5-5-----21-21-21-19b21-19b21-19b21-19b21-14--9-12----------9--'
d-----------------------------------------------------------------------------------------'
a-----------------------------------------------------------------------------------------'
e-----------------------------------------------------------------------------------------'
I am royalty...

hold this chord. play at start of every bar
e------------------------------------------------------------'
b------------------------------------------------------------'
g------------------------------------------------------------'
d---2--------------------------------------------------------'
a---2--------------------------------------------------------'
e---0--------------------------------------------------------'


then
e-----------------------------------------------------------------------------'x2
b-----------------------------------------------------------------------------'
g-----------------------------------------------------------------------------'
d--2---2-2-2--2--2-2----10---10-10-10--10-10-10-------------------------------'
a--2---2-2-2--2--2-2----10---10-10-10--10-10-10-------------------------------'
e--0---0-0-0--0--0-0----8----8--8--8---8--8--8--------------------------------'

drum solo

then
e---------------------------------------------------------------------------'
b---------------------------------------------------------------------------'
g---------------------------------------------------------------------------'
d--2---2-2-2--2--2-2----10---10-10-10--10-10-10-----------------------------'
a--2---2-2-2--2--2-2----10---10-10-10--10-10-10-----------------------------'
e--0---0-0-0--0--0-0----8----8--8--8---8--8--8------------------------------'


please comment and rate :) thankyou
comments
print report bad tab
I want to post or [tab]
guest
You may want to rate the tab now too:
select rating
Please do not post tabs as comments. Select "correction" instead!