Oops, an error
Loading. Please wait.

Right Here Right Now Tab

version 1
version 1

Whole song

11,292 views 24 this week
3 commentsread comments
1 2 3 4 5
accurate
x 3
add to favorites
launch autoscroll
font size
0
reset
how to read this tab
guitar tuner
Autoscroll
slow
fast
+/-
esc
set tempo
stop
Help us to improve Ultimate-Guitar.com Take our survey!
×
Author
Difficulty
djefx44 206
novice
-------------------------------------------------------------------------------
			     Right Here, Right Now - Jesus Jones
-------------------------------------------------------------------------------
Tabbed by: Will Stroud
Email: djefx4@yahoo.com

Tuning: Standard - EADGBE

Intro: Listen to song for timing


e|-x-x-x-x-----x-x-x-x-----x-x-x-x----------3------2-----0-------------------|
B|-x-x-x-x-----x-x-x-x-----x-x-x-x--------3------3---------------------------|
G|-x-x-x-x-----7-7-7-7-----0-0-0-0------4------2------2----------------------| 
D|-7-7-7-7-----6-6-6-6-----5-5-5-5-------------------------------------------|
A|-5-5-5-5-----5-5-5-5-----5-5-5-5-------------------------------------------|
E|-x-x-x-x-----x-x-x-x-----x-x-x-x-------------------------------------------|

Repeat

e|-x-x-x-x-----x-x-x-x-----x-x-x-x----------3------2-----0-------------------|
B|-x-x-x-x-----x-x-x-x-----x-x-x-x--------3------3---------------------------|
G|-x-x-x-x-----7-7-7-7-----0-0-0-0------4------2------2----------------------| 
D|-7-7-7-7-----6-6-6-6-----5-5-5-5-------------------------------------------|
A|-5-5-5-5-----5-5-5-5-----5-5-5-5-------------------------------------------|
E|-x-x-x-x-----x-x-x-x-----x-x-x-x-------------------------------------------|





Verse: almost the same as intro but picked or arpeggiated.
	Guitar 1 plays the rythem (chords)
	Guitar 2 plays the arpeggiated chords (each note seperatly) 

e|-x-x-x-x-----x-x-x-x-----x-x-x-x----------3------2-----0-------------------|
B|-x-x-x-x-----x-x-x-x-----x-x-x-x--------3------3---------------------------|
G|-x-x-x-x-----7-7-7-7-----7-7-7-7------4------2------2----------------------|
D|-7-7-7-7-----6-6-6-6-----5-5-5-5-------------------------------------------|
A|-5-5-5-5-----5-5-5-5-----5-5-5-5-------------------------------------------|
E|-x-x-x-x-----x-x-x-x-----x-x-x-x-------------------------------------------|


Pre-Chorus

	Repeat as necessary
	
e|---0---0-------------------------------------------------------------------|
B|---0---0-------------------------------------------------------------------|
G|---4---4-------------------------------------------------------------------|
D|---5---5-------------------------------------------------------------------|
A|---5---5-------------------------------------------------------------------|
E|---3---3-------------------------------------------------------------------|


chorus:

Same as intro

e|-x-x-x-x-----x-x-x-x-----x-x-x-x----------3------2-----0-------------------|
B|-x-x-x-x-----x-x-x-x-----x-x-x-x--------3------3---------------------------|
G|-x-x-x-x-----7-7-7-7-----7-7-7-7------4------2------2----------------------|
D|-7-7-7-7-----6-6-6-6-----5-5-5-5-------------------------------------------|
A|-5-5-5-5-----5-5-5-5-----5-5-5-5-------------------------------------------|
E|-x-x-x-x-----x-x-x-x-----x-x-x-x-------------------------------------------|


Solo: ? 

Someone figure it out.. 


the song continues, all the parts as there. You'll figure it out, it's easy.
you know intro, verse, pre chorus, chorus, verse, pre chorus, chorus, solo, verse, etc..

Have fun. 

If i completely screwed that one up, well it wouldn't be the first.





| /  slide up
| \  slide down
| h  hammer-on
| p  pull-off
| ~  vibrato
| +  harmonic
| x  Mute note
===============================================================================
Suggest correction new What's this?
You can suggest a correction to this tab. Community and Mods will review your correction and vote to approve or reject it.
comments
We did not receive enough feedback on this tab! Please rate:
print report bad tab
1 2 3 4 5
3 comments total.
0 reply
rightkeith 134 wrote on March 6 2009, 06:33 pm

This is close but incorrect

0 reply
giraffe_king 182 wrote on August 19 2011, 06:48 pm

This is hip.

0 reply
rightkeith 134 wrote on October 23 2014, 06:10 pm

Lack of accuracy. Intro to tab is not correct. Missing notes and notes on tab are incorrect. This should not be the first version for this song.

guest
You may want to rate the tab now too:
select rating
Please do not post tabs as comments. Select "correction" instead!