Oops, an error
Loading. Please wait.

Right Here Right Now Tab

version 2
version 2

Whole song

10,002 views 30 this week
no commentswrite comment
1 2 3 4 5
excellent!
x 4
add to favorites
launch autoscroll
font size
0
reset
how to read this tab
guitar tuner
Tab Pro tools
  • play this tab
  • loop segment
  • change instrument
  • show fretboard
  • metronome
Autoscroll
slow
fast
+/-
esc
set tempo
stop
Contributor
----------------------------------------------------------------------------
                RIGHT HERE RIGHT NOW - Jesus Jones
----------------------------------------------------------------------------
Tabbed by: rightkeith
email: brainwarshed@yahoo.com

Standard Tuning

Great song, very recognizable intro riff. Shame no other tab has it right
since it's the coolest part of the song.


INTRO-- very slight distortion
E---------------------------------------------------------3----2--0-----|
B-------------------------------------------------------------------3---|
G------------------------------------------------------4----2----0------|
D-0---0---0-0-0--x-x-6-6-6-6-6-6-6-x-x-5-5-5-5-5-5-5-x---0----0---------|
A-5-5-5-5-5-5-5--x-x-5-5-5-5-5-5-5-x-x-5-5-5-5-5-5-5-x------------------|
E-----------------------------------------------------------------------|
  |-----------paml mute-------------------------------------------------|

VERSE (starts on same beat intro ends, play together with Intro)
E--------------------------------------------------------3----2---0----|
B----3---3-----3-----5---5-----5----5---5-----5---------------------3--|
G--2---2-----2-----4---4-----4----0---0-----0---------4----2----0------|
D-------------------------------------------------------0----0---------|
A----------------------------------------------------------------------|
E----------------------------------------------------------------------|
Woman on the radio talks about revolution when it's already passed her by
Bob Dillan didn't have this to sing about you know it feels good to be alive


CHORUS-- no strum pattern really since the chorus in the song is mainly
 keyboard (trumpet synth), but these are the chords for guitar.
E---3--------------------------------3---------------3----2--0--2------|
B---3--------------------------------3---------------3----3--3--3------|
G---0--------------------------------0---------------0----2--2--2------|
D---0--------------------------------0---------------0----0--0--0------|
A---2--------------------------------2---------------2-----------------|
E---3--------------------------------3---------------3-----------------|
  I was alive and I waited, waited. I was alive and I waited for this.

E----------------------------------------------------------------------|
B----------------------------------------------------------------------|
G--7----------7--7/9-9-------------12--------------12-----11-----9-----|
D--7----------7--7/9-9-------------12--------------12-----11-----9-----|
A--5----------5--5/7-7-------------10--------------10-----9------7-----|
E----------------------------------------------------------------------|
   Right here, right now, there is no other place I want to be.


E----------------------------------------------------------------------|
B----------------------------------------------------------------------|
G--7----------7--7/9-9-------------12---------------12----11-----9-----|
D--7----------7--7/9-9-------------12---------------12----11-----9-----|
A--5----------5--5/7-7-------------10---------------10----9------7-----|
E----------------------------------------------------------------------|
   Right here, right now, watching the world wake up from history.


VERSE 2
Oh I saw the decade in, when it seemed the world could change
at the blink of an eye. And if anything, then there's your sign
of the times.

CHORUS


GUITAR SOLO-- Heavy Distortion
E----------------------------------------------------------------------|
B------------------------------------12-12p10--------------------------|
G------------------------------------------------10-12--10h12r10-------|
D----------------------------------------------------------------12----|
A-5b8r5-5h6p5/12--12-12-12p10\8----------------------------------------|
E-------------------------------10-------------------------------------|
 (slow)  (quick)

E----------------------------------------------------------------------|
B----------------------------------------------------------------------|
G--------------------------------------10--10-10---------10--10-10-----|
D---------------0-5b7r5p3--------10s12-10--10-10---10s12-10--10-10-----|
A-0h3-5-0-3-5-0-----------5--------------------------------------------|
E----------------------------------------------------------------------|

E----------------------------------------------------------------------|
B----------------------------------------------------------------------|
G-12b14-12b14---12b14r12h14--12--------------12-12-12-12-x-12-10-10-10-|
D-------------------------------14-----------12-12-12-12-x-12-10-10-10-|
A----------------------------------------8-10--------------------------|
E-----------------------------------8-10-------------------------------|

E---10-10-10-10-10-10-10-10-10-10-10-10-10-----------------------------|
B---12-12-12-13-13-14-14-14-15-15-15-15-15-----------------------------|
G----<-----gradually-bend-B-string------>------------------------------|
D----------------------------------------------------------------------|
A----------------------------------------------------------------------|
E----------------------------------------------------------------------|

CHORUS x3
comments
print report bad tab
I want to post or [tab]
guest
You may want to rate the tab now too:
select rating
Please do not post tabs as comments. Select "correction" instead!