Oops, an error
Loading. Please wait.

Bruises tab

by Jet
1,706 views 1 this week
1 commentread comment
1 2 3 4 5
1 last vote to show rating
add to favorites
×
Save as Personal and add changes to this tab that will be seen only by you. Learn more ›
×
You can save this tab as Personal to edit and correct it or add notes. All changes will be seen only by you. Learn more »
launch autoscroll
font size
0
reset
how to read this tab
guitar tuner
edit
Autoscroll
slow
fast
+/-
esc
set tempo
stop
Jet - Bruises (Demo)

I've only heard the demo version, so maybe the single version is differnt to this one


Intro: Em - Am - D - G (x2)

Em                       Am  
I can't live inside of a dream
D                          G
I can't live inside of the dream
Em                        Am
I'm changing my mind next week
D                         G
I'm changing my mind next week

Em            Am
bruises up my arms and a strange look
D               G
who the hell am I
Am                 Am/G
I want to tell you everything
C                  D
I can't make up my mind

e]-----|-------|--------|------------|-----------|-------12| 
b]7-7p5|-------|--------|s12-12-10---|12-12-10---|---(7)---|  
g]-----|7-9-4-5|5p4-11-9|----------12|---------12|11-------| 
d]-----|-------|--------|------------|-----------|---------| 
a]-----|-------|--------|------------|-----------|---------| 
d]-----|-------|--------|------------|-----------|---------| 

Em                       Am
never live inside of the dream
D                        G
I'm livin' inside of the dream
Em                        Am
and everythings nothing I need
D            G
this I don't believe

Em              Am
bells in birmingham ringing
D               G
who the hell am I
Am                 Am/G
I want to tell you everything
C                  D
I can't make up my mind


e]-----|-------|--------|------------|-----------|-------12| 
b]7-7p5|-------|--------|s12-12-10---|12-12-10---|---(7)---|  
g]-----|7-9-4-5|5p4-11-9|----------12|---------12|11-------| 
d]-----|-------|--------|------------|-----------|---------| 
a]-----|-------|--------|------------|-----------|---------| 
d]-----|-------|--------|------------|-----------|---------|

            
            
Suggest correction
Creating personal tab
Creating personal tab
You can edit any tab online and save it as your Personal.

You can edit, replace or remove any tab part or add personal notes – all changes will be seen only by you.

Personal tabs can be accessed anytime from any device, even offline.
Learn more »
Give kudos to tab author, rate the tab!
1 2 3 4 5
comments
print report bad tab
1 comment total.
0 reply
turan.ashirov.9 10 Mar 30, 2014 02:21 AM

Solo isn't right, i think this version is way better and sounds like original:

e]-------|-------|-------|--------------|--------------|----11---12|
b]7-7-7p5|-------|-------|12-12-12-10---|12-12-12-10---|-----------|
g]-------|7-9-4-5|5p4-8-9|------------12|------------12|11---------|
d]-------|-------|-------|--------------|--------------|-----------|
a]-------|-------|-------|--------------|--------------|-----------|
d]-------|-------|-------|--------------|--------------|-----------|

guest
You may want to rate the tab now too:
select rating
Wanna post a correction for this tab? Suggest correction