Oops, an error
Loading. Please wait.

Eleanor intro tab

version 1
version 1

Intro

Interactive

by Jet
3,360 views 3 this week
1 commentread comment
1 2 3 4 5
x 6
add to favorites
×
Save as Personal and add changes to this tab that will be seen only by you. Learn more ›
×
You can save this tab as Personal to edit and correct it or add notes. All changes will be seen only by you. Learn more »
launch autoscroll
font size
0
reset
how to read this tab
guitar tuner
edit
Autoscroll
slow
fast
+/-
esc
set tempo
stop
Author
Difficulty
There is a tab here that has good chords but I thought the intro was off. This matches 
perfectly if you play it along with the recording.

This is a great and easy song to learn how to play and sing by the way, (look at other 
for chords)


e---7-5----------7--------5-7-8-7-5------7-5----------7--------5-7---3-|
B-------8-5--8-5-----------------------------8-5--8-5----------------3-|
G-5---------------------7--------------5---------------------7-------0-|
D--------------------------------------------------------------------0-|
A--------------------------------------------------------------------2-|
E--------------------------------------------------------------------3-|

            
            
Suggest correction
Creating personal tab
Creating personal tab
You can edit any tab online and save it as your Personal.

You can edit, replace or remove any tab part or add personal notes – all changes will be seen only by you.

Personal tabs can be accessed anytime from any device, even offline.
Learn more »
comments
print report bad tab
1 comment total.
0 reply
Narvath 10 Jan 22, 2014 08:05 AM

Hello I added a note on the second part and this seems perfect:

----5-7-8-7-5--
---6-----------
--7------------

guest
You may want to rate the tab now too:
select rating
Wanna post a correction for this tab? Suggest correction