Oops, an error
Loading. Please wait.

Get Me Outta Here Tab

version 1
version 1

Whole song

Interactive

by Jet
5,229 views 9 this week
no commentswrite comment
1 2 3 4 5
accurate
x 5
add to favorites
launch autoscroll
font size
0
reset
how to read this tab
guitar tuner
Tab Pro tools
  • play this tab
  • loop segment
  • change instrument
  • show fretboard
  • metronome
Autoscroll
slow
fast
+/-
esc
set tempo
stop
Contributor
Band: Jet
Album: GET BORN
Song: "Get Me Outta Here"
Tuning: Standard (E A D G b e)

Notes: Once you get it down it's pretty easy. I'm not sure what guitars they used for
this song but I know that live Nic uses a 1968 and 2004 Gibson ES-335 and a 2004 Gibson
SG. Live, Cameron Muncey uses a late seventies Gibson Flying V, a 2004 Gibson Flying V,
a 2004 Les Paul Gold Top and a Gibson Custom Firebird (year unknown). Thanks to Gutiar
World for all of that information. I also believe the lead guitar has his pickup switch
in the "Treble" setting. Listen to the song for the correct timing.

Tab:

Intro: PT. 1
e|-----------------------|             |-0-----------| 
b|-----------------------| Guitar 1    |-0-----------| Guitar 2
G|-----------------------|             |-0-----------|
D|-----------------------|             |-------------|
A|-----------------------|             |-------------|
E|-5-5-3-5-5-0-3-5-5-5-3-|             |-------------|

PT. 2:
|-------------------------|
|-------------------------| Both Guitars
|-------------------------|
|-------------------------|
|-7-7-5-7-7-0-5-7-7-7-5---|
|-5-5-3-5-5-0-3-5-5-5-3---|

Verse:
|----------------------------|         |-----|
|----------------------------| Gtr. 1  |-----| Gtr. 2 
|---4--6--7-7-7-6-7-6-0------|         |-2---| (Listen to the song for the 
|-7-------7-7-7-7-7-7-0-7-7--|         |-2---| number of repitetions)
|-7-------0-0-0-0-0-0-0-7-7--|         |-0---|
|-5---------------------5-5--|         |-----|

Chorus:
|-3-----------------------------------------------|
|-0--3--------------------------------------------| Both Guitars
|-0--2--------------------------------------------|
|-0--0--------------------------------------------|
|-x--0--7-7-5-7-7-0-5-7-7-------------------------|
|-3-----5-5-3-5-5-0-3-5-5-------------------------|

Bridge:
|-------0-3---------------------------------------|   Gtr. 2
|-------0-3---------------------------------------|   Gtr. 1 has a solo part
|-------1-4---------------------------------------|   that I can't figure 
|-------2-5---------------------------------------|X2 out. If you Have any
|-------2-5--7-7-5-7-7-0-5-7-7--------------------|   suggestions please 
|-3-2-0-0-3--5-5-3-5-5-0-3-5-5-3-2-0--------------|   feel free to post
                                                      them.
|-0-3---------------------------------------------|
|-0-3---------------------------------------------|
|-1-4-7-------------------------------------------|
|-2-5-7-------------------------------------------|
|-2-5-5-------------------------------------------|
|-0-3---------------------------------------------|

Outro:
|--------|
|--------|
|-2-2----|X8
|-2-2----|
|--------|
|--------|
Then repeat the chorus a bunch of times.
End on:
|----------------|
|----------------|
|-7--------------|
|-7--7-----------|
|-5--7-----------|
|----5-----------|

If you have any questions, comments or hate mail feel free to e-mail me at
BKLBR182@AOL.COM. (Don't worry I don't like blink any more I made it up when I was 12)
comments
print report bad tab
I want to post or [tab]
guest
You may want to rate the tab now too:
select rating
Please do not post tabs as comments. Select "correction" instead!