Oops, an error
Loading. Please wait.

Lazy Gun Tab

version 3
version 3

Whole song

Interactive

by Jet
3,780 views 3 this week
no commentswrite comment
1 2 3 4 5
x 6
add to favorites
×
Save as Personal and add changes to this tab that will be seen only by you. Learn more ›
×
You can save this tab as Personal to edit and correct it or add notes. All changes will be seen only by you. Learn more »
save as personal
new!
launch autoscroll
font size
0
reset
how to read this tab
guitar tuner
backing track
0:00
0:00
Autoscroll
slow
fast
+/-
esc
set tempo
stop
Song: "Lazy Gun" 
Band: Jet
Album: Get Born

Intro / Verse
Guitar 1:
e|--------------|----------------------|
B|--------------|----------------------|
G|-4/6-X--------|-4/7-77777777/8888888-|
D|-5/7-X--------|-5/8-88888888/9999999-|
A|-5/7-X--------|-5/8-88888888/9999999-|
E|-3/5-X-----X2-|-3/6-55555555/7777777-|
Guitar 2:
e|-------12-----|-------12--------15---|
B---X--X-14-----|-----X-14------X-17---|
G|--14-X-14-----|--14-X-14---17-X-17---|
D|--14-X-14-----|--14-X-14---17-X-17---|
A|--12-X-12-----|--12-X-12---15-X-15---|
E|-----x--------|-----X---------X------|

Chorus:
   D               B               A               G
e|-----2-------2-------2-------2-------2-------2-------2-------2---|
B|---3---3---3---3—--3---3---3---3---3---3---3---3---3---3---3---3-|
G|-----------------------------------------------------------------|
D|-0-------0-------------------------------------------------------|
A|-----------------2-------2-------0-------0-----------------------|
E|-------------------------------------------------3-------3-------| X2

Well... That's about it... There's a little thingamajig at the end I can't get right...
But this is the main riff and the corrected chorus from everyone else.

- Landon
Suggest correction
comments
print report bad tab
guest
Wanna post a correction for this tab? Suggest correction