Oops, an error
Loading. Please wait.

Put Your Money Where Your Mouth Is Tab

version 1
version 1

Whole song

Interactive

by Jet
9,101 views 9 this week
5 commentsread comments
1 2 3 4 5
x 16
add to favorites
launch autoscroll
font size
0
reset
how to read this tab
guitar tuner
Autoscroll
slow
fast
+/-
esc
set tempo
stop
Help us to improve Ultimate-Guitar.com Take our survey!
×
Author
Difficulty
novice
Artist- Jet
Song- Put Your Money Where Your Mouth Is
Album- Shine On
By- Joshua Reynolds

This is my first tab, but this songs not to hard. Its pretty sweet tho.

Standard Tuning: EADGBE

Intro(0:00-0:08):

e|---------------|--------------||
b|---------------|--------------||
g|---------------|--------------||
D|---------------|--------------||
A|-2-2-22--5b----|---------2-502||
E|-----------55-5|--5-5-55------||

Bass & Drums(0:08-0:20)

Verse(0:20-0:44):

e|---------------|--------------|--------------|--------------|
b|---------------|--------------|--------------|--------------|
g|------4--------|--------------|--------------|------4-------|
D|-7-7--4--------|-7-7--4-------|-7-7--2-------|-7-7--4-------|
A|-7-7--2--------|-7-7--4-------|-7-7--2-------|-7-7--2-------|
E|-5-5-----------|-5-5--2-------|-5-5--0-------|-5-5----------|

e|---------------|---------------|--------------||
b|---------------|---------------|--------------||
g|---------------|---------------|--------------||
D|-7747----------|---------------|--------------||
A|-5525----------|-2-2-22--5b----|---------2-502||
E|---------------|-----------55-5|--5-5-55------||

Chorus(0:44-0:58):

e|---------------|---------------|---------------|---------------||
b|---------------|---------------|---------------|---------------||
g|-4-------------|-7---4---------|-4-------------|-7---4--------4||
D|-4-7-2---------|-7-7-4---------|-4-7-2---------|-7-7-4----7-7-4||
A|-2-7-2---------|-5-7-2---------|-2-7-2---------|-5-7-2----7-7-2||
E|---5-0---------|---5-----------|---5-0---------|---5------5-5--||

Drums & Vocals(1:00-1:12)

Verse2(1:00-1:28)

e|---------------|--------------|--------------|--------------|
b|---------------|--------------|--------------|--------------|
g|------4--------|--------------|--------------|------4-------|
D|-7-7--4--------|-7-7--4-------|-7-7--2-------|-7-7--4-------|
A|-7-7--2--------|-7-7--4-------|-7-7--2-------|-7-7--2-------|
E|-5-5-----------|-5-5--2-------|-5-5--0-------|-5-5----------|

e|---------------||
b|---------------||
g|---------------||
D|-7747----------||
A|-5525----------||
E|---------------||

Chorus(1:28-1:43):

e|---------------|---------------|---------------|---------------||
b|---------------|---------------|---------------|---------------||
g|-4-------------|-7---4---------|-4-------------|-7---4--------4||
D|-4-7-2---------|-7-7-4---------|-4-7-2---------|-7-7-4----7-7-4||
A|-2-7-2---------|-5-7-2---------|-2-7-2---------|-5-7-2----7-7-2||
E|---5-0---------|---5-----------|---5-0---------|---5------5-5--||

Pre-Solo(1:43-1:49)

e|---------------|--------------||
b|---------------|--------------||
g|---------------|--------------||
D|---------------|--------------||
A|-----5b--------|---------2-502||
E|-------55-5----|--5-5-55------||

*solo is kinda sketchy, but youll figure it out

Solo(1:49-End)

e|---------------|-------2-4-7-10-7|-77-554--------|-4h57-10-7-5h7-|
b|-4-7-2-020-----|-----2-4---------|---------------|---------------|
g|---------------|-1h2-4-----------|---------------|---------------|
D|---------------|-----------------|---------------|---------------|
A|---------------|-----------------|---------------|---------------|
E|---------------|-----------------|---------------|---------------|

e|-5h77-5h77-5h77-5h77-5h77|14-14-12-10h12-10-7-|-5h77-5h77-5h77777777|
b|-------------------------|--------------------|---------------------|
g|-------------------------|--------------------|---------------------|
D|-------------------------|--------------------|---------------------|
A|-------------------------|--------------------|---------------------|
E|-------------------------|--------------------|---------------------|
-
e|-10-5-7-10-12-10|-14-17-12-10-12-10---14-17-12-10-12-10|14-17-12---7---|
b|----------------|--------------------------------------|---------------|
g|----------------|--------------------------------------|---------------|
D|----------------|--------------------------------------|---------------|
A|----------------|--------------------------------------|---------------|
E|----------------|--------------------------------------|---------------|
Suggest correction
comments
print report bad tab
5 comments total. Showing first comments.
0 reply
scarfacesuit 101 Aug 26, 2006 03:03 PM

nice tab. i tried to figure it out myself earlier, but i'm too lazy. thanks

0 reply
Suspended Chaos 10 Sep 09, 2006 02:20 AM

Your structure is slightly wrong, but all around good tab. Congrats.

0 reply
_RATM_ 47 Oct 05, 2006 10:13 PM

nice tab i guess...but could have made the solo easier by not making it all on one string....good song

guest
You may want to rate the tab now too:
select rating
Wanna post a correction for this tab? Suggest correction