Oops, an error
Loading. Please wait.

Put Your Money Where Your Mouth Is bass

version 2
version 2

Whole song

Interactive

by Jet
1,441 views 1 this week
2 commentsread comments
1 2 3 4 5
x 3
add to favorites
×
Save as Personal and add changes to this tab that will be seen only by you. Learn more ›
×
You can save this tab as Personal to edit and correct it or add notes. All changes will be seen only by you. Learn more »
launch autoscroll
font size
0
reset
guitar tuner
edit
Autoscroll
slow
fast
+/-
esc
set tempo
stop
Difficulty
Jet - Put Your Money

Verse After Guitar
G|----------------------------------------------------------------||
D|----------------------------------------------------------------||
A|2222222222220000------------0000------------00002222222222222222||
E|----------------222222222222----000000000000--------------------||

Verse With Guitar
G|---------------------------------||
D|---------------------------------||
A|0--0--2~0--0---0---0----0---0--2~||
E|-------------2~------0~----------||

Lick At The End Of Verse (Plays @ 00:36, 1:27)
G|------------||
D|------------||
A|2--5--0---5~||
E|------------||

Chorus
G -------------------------------||
D -------------------------------||
A 2--0---5--0--2~2--0----5--0--2~||
E -----0~-------------0~---------||

Solo
Play the chorus in 8th notes


Thats it, you can figure out when the bass plays what part but this to me is 100% 
it's what I play with my cover band and no one has told me it's wrong or anything like that. 
enjoy

            
            
Suggest correction
Creating personal tab
Creating personal tab
You can edit any tab online and save it as your Personal.

You can edit, replace or remove any tab part or add personal notes – all changes will be seen only by you.

Personal tabs can be accessed anytime from any device, even offline.
Learn more »
Give kudos to tab author, rate the tab!
1 2 3 4 5
comments
print report bad tab
2 comments total.
0 reply
thespines 20 Jan 05, 2007 11:47 AM

a little confusing, but good

0 reply
guyisasexybeast 52 May 10, 2007 06:00 AM

Brilliant

guest
Wanna post a correction for this tab? Suggest correction