Oops, an error
Loading. Please wait.

Put Your Money Where Your Mouth Is tab

version 3
version 3

Whole song

Interactive

by Jet
4,049 views 1 this week
no commentswrite comment
1 2 3 4 5
x 7
add to favorites
×
Save as Personal and add changes to this tab that will be seen only by you. Learn more ›
×
You can save this tab as Personal to edit and correct it or add notes. All changes will be seen only by you. Learn more »
launch autoscroll
font size
0
reset
how to read this tab
guitar tuner
edit
Autoscroll
slow
fast
+/-
esc
set tempo
stop
The other tabs weren't cutting it for me, so I made my own for everyone else.  Pretty accurate.

INTRO:
                 ~~        ~~~~
e|---------------------------------------------------------------|
B|---------------------------------------------------------------|
G|---------------------------------------------------------------|
D|---------------------------------------------------------------|
A|---------------5------------------------------------5----------|
E|-7---7---7---------5-5---5-----(0)5---5---5-----7-------5-7\\\-|
                                                      She's a loaded...

VERSE 1For first line of each verse, no guitars.  Here's the second half of each verse.
that didn't make any sense to you, listen to the song - You'll get it.
           Let ring---------------|         Let ring---------------|
e|-----------------------------------------------------------------|
B|-----------------------------------------------------------------|
G|-----------------------------------------------------------------|
D|---------9--------------------------------4----------------------|
A|---------9--------------------------------4----------------------|
E|-5---5---7------------------------5---5---2----------------------|
           Tell you my name...                You can be...

e|----------------------------0------------------------------------|
B|--------------------------0---0----------------------------------|
G|--------------------------------1--------------------------------|
D|---------2--------------------------------9----------------------|
A|---------2--------------------------------9----------------------|
E|-2---2---0------------------------5---5---7----------------------|
           I was born...                    Anyone,

RIFF:
         ~~~~~~~~
e|----------------|
B|----------------|
G|----------------|
D|----------------|
A|-5-5---5--------|
E|-----7----------|
...Anyone...

INTRO: Play again after the riff.  Then go to the chorus.  Prepare to rock.

CHORUS: Play twice

e|------------------------------0---------------------------------|
B|------------------------------3---------------------------------|
G|------------------------------2-----2-----4---------------------|
D|-9-----7-----2----------------0-----2-----4---------------------|
A|-9-----7-----2----------------------0-----2---------------------|
E|-7-----5-----0--------------------------------------------------|
   Show  me    yours       I’ll show  you   mine...
               (I’ll show you...)           (When you tell me...)
               (So put your...)             (Yeah!)

VERSE 2: Same drill.  No guitar first half.  Same chords as first verse.  Yatta-yatta-yatta.

After the 2nd verse, play the riff like you would in the 1st verse, but skip the intro
and go straight to the chorus.

After the 2nd chorus, play the intro...Followed by the solo!

SOLO: Chorus chords.  That’s all you really need to know.  It sounds pretty sweet.
to the song for exact timing.  This may be a little off as far as timing, but not perfect.
far as the tab goes, it should be just about right.  Just listen to the song.

e|--------------------------------------------9----11-9-------|
B|-------7--------------------------------7-9-----------9-9-9-|
G|-6/8-------8\6---4-6-4-----\\-----4h6-8---------------------|
D|------------------------------4h6---------------------------|
A|------------------------------------------------------------|
E|------------------------------------------------------------|

e|-11-----9-----7----------5\7-7-7-7p5---5h7-10----10-7-5-7\\-|
B|-12----10-----9---------------------------------------------|
G|------------------------------------------------------------|
D|------------------------------------------------------------|
A|------------------------------------------------------------|
E|------------------------------------------------------------|

CHORUS: Same as the other two.  In the background, the one of the guitars continues to
but I can’t quite make out what it sounds like.  Whatever.  Hope the tabs helps.

-Landon
Suggest correction
Creating personal tab
Creating personal tab
You can edit any tab online and save it as your Personal.

You can edit, replace or remove any tab part or add personal notes – all changes will be seen only by you.

Personal tabs can be accessed anytime from any device, even offline.
Learn more »
comments
print report bad tab
guest
You may want to rate the tab now too:
select rating
Wanna post a correction for this tab? Suggest correction