Oops, an error
Loading. Please wait.

Seventeen tab

version 4
version 4

Whole song

Interactive

by Jet
4,031 views 3 this week
1 commentread comment
1 2 3 4 5
2 more votes to show rating
add to favorites
×
Save as Personal and add changes to this tab that will be seen only by you. Learn more ›
×
You can save this tab as Personal to edit and correct it or add notes. All changes will be seen only by you. Learn more »
launch autoscroll
font size
0
reset
how to read this tab
guitar tuner
edit
Autoscroll
slow
fast
+/-
esc
set tempo
stop
Author
Difficulty
Jet - Seventeen, Shaka Rock... The interlude is not 100% accurate, but the rest should be...


Intro:

e]-----------------------------------------------------]
b]-----------------------------------------------------]
g]---13-13-13-14-14-14-14-14-14-14-14-14-14-14-14-14---]  (9 times) 
d]---11-11-11-11-11-11-11-11-11-11-11-11-11-11-11-11---]
a]-----------------------------------------------------]
E]-----------------------------------------------------]


Band joins in after the piano plays the intro riff 6 times...

e]----9-9--9--]
b]----9-10-10-] This is played from the 7th to 9th progression of the intro 
g]----9-9--9--]
d]------------]
a]------------]
E]------------]


This is played after the intro riff plays 9 times...


e]--15-14-12-10-9-10-9------------15-14-12-10-9-10-9-------------------]
b]---------------------10----------------------------10------10-10-10b-]
g]------------------------6-----------------------------6--------------]
d]--------------------------7-----------------------------7------------]
a]---------------------------------------------------------------------]
E]---------------------------------------------------------------------]


chorus...

e]------------------------]
b]------------------------]
g]--6-6-------2-2--2-2-2-2]   (4 times)
d]--6-6--2-2--2-2--2-2-2-2]
a]--4-4--2-2--0-0--0-0-0-0]
E]-------0-0--------------]


intro riff again...

e]-----------------------------------------------------]
b]-----------------------------------------------------]
g]---13-13-13-14-14-14-14-14-14-14-14-14-14-14-14-14---]  (8 times) 
d]---11-11-11-11-11-11-11-11-11-11-11-11-11-11-11-11---]
a]-----------------------------------------------------]
E]-----------------------------------------------------]




e]----9-9--9--9--]
b]----9-10-10-10-] (8 times)
g]----9-9--9--9--]
d]---------------]
a]---------------]
E]---------------]



e]--15-14-12-10-9-10-9------------15-14-12-10-9-10-9-------------------]
b]---------------------10----------------------------10------10-10-10b-]
g]------------------------6-----------------------------6--------------]
d]--------------------------7-----------------------------7------------]
a]---------------------------------------------------------------------]
E]---------------------------------------------------------------------]


chorus riff...

e]------------------------]
b]------------------------]
g]--6-6-------2-2--2-2-2-2]   (8 times)
d]--6-6--2-2--2-2--2-2-2-2]
a]--4-4--2-2--0-0--0-0-0-0]
E]-------0-0--------------]



Interlude...

e]-9----9--]
b]-10---10-]
g]-6----7--]  (4 times)
d]---------]
a]---------]
E]---------]


e]--7-9-10-]
b]---------]
g]---------]  (2 times[first 2 times the chords are played])
d]---------]
a]---------]
E]---------]


e]------9---------9---------9---------9-----]
b]---10---10---10---10---10---10---10---10--]
g]-7---------7---------7---------7----------]
d]------------------------------------------]
a]------------------------------------------]
E]------------------------------------------]

e]------10-9-------10-9------10-9-------10-9-------]
b]---10------10-7-------10-7-------10-7-------10---]
g]-7-----------------------------------------------]   (2 times)
d]-------------------------------------------------]
a]-------------------------------------------------]
E]-------------------------------------------------]


e]-----9-10-9----9-10-9----9-10-9---9----9----8----9----9----9----8br--7-]
b]--10--------10--------10------------10---10---10---10---10---10--------]
g]-----------------------------------------------------------------------]
d]-----------------------------------------------------------------------]
a]-----------------------------------------------------------------------]
E]-----------------------------------------------------------------------]





e]-----------------------------------------------------]
b]-----------------------------------------------------]
g]---13-13-13-14-14-14-14-14-14-14-14-14-14-14-14-14---]  (8 times) 
d]---11-11-11-11-11-11-11-11-11-11-11-11-11-11-11-11---]
a]-----------------------------------------------------]
E]-----------------------------------------------------]


e]----9-9--9--9--]
b]----9-10-10-10-] (8 times)
g]----9-9--9--9--]
d]---------------]
a]---------------]
E]---------------]



chorus...

e]------------------------]
b]------------------------]
g]--6-6-------2-2--2-2-2-2]   (8 times)
d]--6-6--2-2--2-2--2-2-2-2]
a]--4-4--2-2--0-0--0-0-0-0]
E]-------0-0--------------]


Finish...
Suggest correction
Creating personal tab
Creating personal tab
You can edit any tab online and save it as your Personal.

You can edit, replace or remove any tab part or add personal notes – all changes will be seen only by you.

Personal tabs can be accessed anytime from any device, even offline.
Learn more »
Give kudos to tab author, rate the tab!
1 2 3 4 5
comments
print report bad tab
1 comment total.
0 reply
Jase_Was_Here 10 Dec 29, 2010 03:02 PM

Great tab mate thanks heaps, but the only thing is the distorted guitar at the start of the chorus, there is 2 parts,
e]------------------------]
b]------------------------]
g]--6-6-------2-2--2-2-2-2]
d]--6-6--2-2--2-2--2-2-2-2]
a]--4-4--2-2--0-0--0-0-0-0]
E]-------0-0--------------]
Then
e]------------------------]
b]------------------------]
g]--6-6--9-9--2-2--2-2-2-2]
d]--6-6--9-9--2-2--2-2-2-2]
a]--4-4--7-7--0-0--0-0-0-0]
E]------------------------]
Sounds better I think :) JC

guest
You may want to rate the tab now too:
select rating
Wanna post a correction for this tab? Suggest correction