Oops, an error
Loading. Please wait.

Seventeen Acoustic tab

version 5
version 5

Whole song

Interactive

by Jet
103 views 9 this week
no commentswrite comment
1 2 3 4 5
3 more votes to show rating
add to favorites
×
Save as Personal and add changes to this tab that will be seen only by you. Learn more ›
×
You can save this tab as Personal to edit and correct it or add notes. All changes will be seen only by you. Learn more »
launch autoscroll
font size
0
reset
how to read this tab
guitar tuner
edit
Autoscroll
slow
fast
+/-
esc
set tempo
stop
Author
Difficulty
This is the tab for Seventeen - Acoustic by Jet.
The 4:20min version with female vocals that you can hear only on Spotify,
in the "Seventeen" sigle realeased in 2010.

[Intro]

e|---------x-------------x--|
B|---------x-------------x--|
G|--9--11--x--2-2-2-2-2--x--|
D|--9--11--x--2-2-2-2-2--x--| x4
A|--7--9---x--0-0-0-0-0--x--|
E|--0--0---x--0-0-0-0-0--x--|

[Verse]

"I get back home at a quarter to four"
e|---------x-------------x--|
B|---------x-------------x--|
G|--9--11--x--2-2-2-2-2--x--|
D|--9--11--x--2-2-2-2-2--x--| x7
A|--7--9---x--0-0-0-0-0--x--|
E|--0--0---x--0-0-0-0-0--x--|

[Brigde]

"Don't care what faithless people SAY"
                                   G             A
"Should I care"
           G         A

[Pre-Chorus]

e|-----------------x--------|
B|-----------------x--------|
G|--6-----2--------x--------|
D|--6--2--2--------x--------| x2
A|--4--2--0--------x--------|
E|--0--0--0--------x--------|

[Chorus]

e|--------------------x-----|
B|--------------------x-----|
G|--6-----2-2-2-2-----x-----|
D|--6--2--2-2-2-2-----x-----| x3
A|--4--2--0-0-0-2-----x-----|
E|--0--0--0-0-0-0-----x-----|

e|--------------------x-----|
B|--------------------x-----|
G|--6--9--2-2-2-2-----x-----|
D|--6--9--2-2-2-2-----x-----| Last last
A|--4--7--0-0-0-2-----x-----|
E|--0--0--0-0-0-0-----x-----|

[Intro 2]

e|---------x-------------x--|
B|---------x-------------x--|
G|--9--11--x--2-2-2-2-2--x--|
D|--9--11--x--2-2-2-2-2--x--| x4
A|--7--9---x--0-0-0-0-0--x--|
E|--0--0---x--0-0-0-0-0--x--|

[Verse 2]

"I get back home at a quarter to four"
e|---------x-------------x--|
B|---------x-------------x--|
G|--9--11--x--2-2-2-2-2--x--|
D|--9--11--x--2-2-2-2-2--x--| x7
A|--7--9---x--0-0-0-0-0--x--|
E|--0--0---x--0-0-0-0-0--x--|

[Brigde 2]

"Don't care what faithless people SAY"
                                   G             A
"Should I care"
           G         A

[Pre-Chorus 2]

e|-----------------x--------|
B|-----------------x--------|
G|--6-----2--------x--------|
D|--6--2--2--------x--------| x2
A|--4--2--0--------x--------|
E|--0--0--0--------x--------|

[Chorus 2]

e|--------------------x-----|
B|--------------------x-----|
G|--6-----2-2-2-2-----x-----|
D|--6--2--2-2-2-2-----x-----| x3
A|--4--2--0-0-0-2-----x-----|
E|--0--0--0-0-0-0-----x-----|

e|--------------------x-----|
B|--------------------x-----|
G|--6--9--2-2-2-2-----x-----|
D|--6--9--2-2-2-2-----x-----| Last last
A|--4--7--0-0-0-2-----x-----|
E|--0--0--0-0-0-0-----x-----|

----------------

When the dead notes comes in, just strum up and down with finger 1.
Listen to the record to get the right rhythm.

----------------

You can also play this in bridges if you are in duo,
with one of the guitars keeps playing chords

e|------9---------9---------9---------9-----|
b|---10---10---10---10---10---10---10---10--|
g|-7---------7---------7---------7----------|
d|------------------------------------------|
a|------------------------------------------|
E|------------------------------------------|

e|------10-9-------10-9------10-9-------10-9-------|
b|---10------10-7-------10-7-------10-7-------10---|
g|-7-----------------------------------------------|   (2 times)
d|-------------------------------------------------|
a|-------------------------------------------------|
E|-------------------------------------------------|


e|-----9-10-9----9-10-9----9-10-9---9----9----8----9----9----9----8br--7-|
b|--10--------10--------10------------10---10---10---10---10---10--------|
g|-----------------------------------------------------------------------|
d|-----------------------------------------------------------------------|
a|-----------------------------------------------------------------------|
E|-----------------------------------------------------------------------|

*tab by Angus_Young1*



************************************

| x   Dead note
| br  Bend release

************************************

            
            
Suggest correction
Creating personal tab
Creating personal tab
You can edit any tab online and save it as your Personal.

You can edit, replace or remove any tab part or add personal notes – all changes will be seen only by you.

Personal tabs can be accessed anytime from any device, even offline.
Learn more »
Give kudos to tab author, rate the tab!
1 2 3 4 5
comments
print report bad tab
guest
You may want to rate the tab now too:
select rating
Wanna post a correction for this tab? Suggest correction