Oops, an error
Loading. Please wait.

Shes A Genius bass

version 2
version 2

Whole song

Interactive

by Jet
8,523 views 1 this week
3 commentsread comments
1 2 3 4 5
x 4
add to favorites
×
Save as Personal and add changes to this tab that will be seen only by you. Learn more ›
×
You can save this tab as Personal to edit and correct it or add notes. All changes will be seen only by you. Learn more »
launch autoscroll
font size
0
reset
guitar tuner
backing track
0:00
0:00
edit
Autoscroll
slow
fast
+/-
esc
set tempo
stop
Author
Difficulty
INTRO
G-----------------------------------|
D-----------------------------------|    x6
A-----------------------------------|
E-12-12-0-0-12-10-12-12-0-3-5-------|

VERSE PART 1
G-----------------------------------------|
D-----------------------------------------|
A-----------------------------------------|
E-12/-------12-12-0-0-12-10-12-12-0-3-5---|

VERSE PART 2
G-------------------------------|
D-------------------------------|  x2
A-------------------------------|
E-000003-555553-555553-000003---|

PRE CHORUS
G--------------------|
D--------------------|
A--------------------|
E 7--- 7/55555555----|

CHORUS
G----------------------------------------------------------------|
D----------------------------------------------------------------|
A-33-33-3-55--55-77-----77---75-33-33-3-55--55-------------------|
E------------7------00-0---00--------------7---777777777777777---|

INTRO x2

VERSE PART 2 x2

PRE CHORUS

CHORUS 2
G---------------------------------|
D---------------------------------|
A-33-33-3-55--55-77-----77---75---| x3
E------------7------00-0---00-----|

CHORUS 2 ENDING
G---------------------------------|
D---------------------------------|
A-33-33-3-55--55------------------|
E------------7---777777777777777--|

VERSE PART 2 x2 (SOLO)

PRE CHORUS

LAST CHORUS
G------------------|
D------------------|
A-77-----77---75---|
E----00-0---00-----|

CHORUS 2 x3

LAST PART BEFORE OUTRO
G-------------------|
D-------------------|
A-33-33-3-55--55----| x3
E------------7------|

G---------------------|
D---------------------|
A---------------------|
E-777777777777777-----|

INTRO x1 (OUTRO)

THNX! pls rate and comment

            
            
Suggest correction
Creating personal tab
Creating personal tab
You can edit any tab online and save it as your Personal.

You can edit, replace or remove any tab part or add personal notes – all changes will be seen only by you.

Personal tabs can be accessed anytime from any device, even offline.
Learn more »
comments
print report bad tab
3 comments total.
0 reply
BassGralton 10 Sep 27, 2009 01:37 AM

tthx for the help good tabbing i reckon 4/5
keep it up,

0 reply
bassmasta1997 10 Jul 14, 2010 07:01 PM

this tab is wrong for the intro and verse

G-----------------------------------|
D-----------------------------------| x6
A--7-7--------7-5-7-----------------|
E-------0-0-------------0--3--5-----|

0 reply
davidpn 207 Sep 21, 2010 04:49 AM

bassmasta1997, they're the same notes, but yours is missing the other E played on the A string. Should be:

G|----------------------------------|
D|----------------------------------| x6
A|--7-7--------7-5-7---7------------|
E|-------0-0-------------0--3--5----|

Verse part 1 has no bass aside from the E at the very beginning. Part 2 leads in with a B and D, and sounds a lot like the E is up an octave from what you have it:
G|-----------------------------------------|
D|-----------------------------------------|
A|----5--77777-------------------77777-----|
E|--7----------3-55555-3-55555-3-------3---|

That's just a start..

guest
You may want to rate the tab now too:
select rating
Wanna post a correction for this tab? Suggest correction