Oops, an error
Loading. Please wait.

Shes A Genius tab

version 2
version 2

Whole song

Interactive

Video

by Jet
13,240 views 3 this week
2 commentsread comments
1 2 3 4 5
x 4
add to favorites
×
Save as Personal and add changes to this tab that will be seen only by you. Learn more ›
×
You can save this tab as Personal to edit and correct it or add notes. All changes will be seen only by you. Learn more »
launch autoscroll
font size
0
reset
how to read this tab
guitar tuner
backing track
0:00
0:00
edit
Autoscroll
slow
fast
+/-
esc
set tempo
stop
Jet
She's a Genius

Tabbed by René, with help of Steve Collins & Alex Kelly`s tabs, with slight 
and an added solo.

Intro
e-----------------------------|------------------------------|
B-----------------------------|------------------------------|
G-----------------------------|------------------------------|
D-----------------------------|------------------------------|
A---7-7------7-5-7--7---------|-----7-7-----7-5-7--7---------|
E-------0-0-----------0-3-0-5-|--------0-0----------0-3-0-5--|x2


My girl's ready to take control she just blows my mind
e---------------------------|-----------------------------|
B---------------------------|-----------------------------|
G---9-9-9-9-----------------|----------------9-9-9-9-9----|
D---9-9-9-9--5-7-7-7-7-7--5-|--7-7-7-7-7--5--9-9-9-9-9-7--|
A---7-7-7-7--5-7-7-7-7-7--5-|--7-7-7-7-7--5--7-7-7-7-7-7--|
E------------3-5-5-5-5-5--3-|--5-5-5-5-5--3------------5--|

She only listens to the radio to see who's alive
e---------------------------|-----------------------------|
B---------------------------|-----------------------------|
G---9-9-9-9-----------------|----------------9-9-9-9-9----|
D---9-9-9-9--5-7-7-7-7-7--5-|--7-7-7-7-7--5--9-9-9-9-9----|
A---7-7-7-7--5-7-7-7-7-7--5-|--7-7-7-7-7--5--7-7-7-7-7----|
E------------3-5-5-5-5-5--3-|--5-5-5-5-5--3-----------0---|

yeah
e---------------------------|
B---------------------------|
G------------------------7--|
D---------------------5--7--|
A---7-7-----7-5-7-7---5--5--|
E-------0-0---------0-3-----|

She wakes up scared of getting of getting old...
e---------------------------|-----------------------------|
B---------------------------|-----------------------------|
G---9-9-9-9-----------------|----------------9-9-9-9-9----|
D---9-9-9-9--5-7-7-7-7-7--5-|--7-7-7-7-7--5--9-9-9-9-9-7--|
A---7-7-7-7--5-7-7-7-7-7--5-|--7-7-7-7-7--5--7-7-7-7-7-7--|
E------------3-5-5-5-5-5--3-|--5-5-5-5-5--3------------5--| x2

e-----------------------------|
B-----------------------------|
G---------7-7-----------------|
D---9-----7-7------7----------|
A---9-----5-5------7----------|
E---7--------------5----------|

That girl's a genius
e------------------------------|------------------------------|
B------------------------------|------------------------------|
G-5-5-5-5-5-5--5--7-7--7-7--4--|---9-9--9-9--9---9-9--9-9--9--|
D-5-5-5-5-5-5--5--7-7--7-7--4--|---9-9--9-9--9---9-9--9-9--9--|
A-3-3-3-3-3-5--3--5-5--5-5--2--|---7-7--7-7--7---7-7--7-7--7--|
E------------------------------|------------------------------|

I think she's serious
e-----------------------------------------------------|
B-----------------------------------------------------|
G-5-5-5-5-5-5--5--7-7--4-4--4--4-4-4-4-4-4-4-4-4-4-4--|
D-5-5-5-5-5-5--5--7-7--4-4--4--4-4-4-4-4-4-4-4-4-4-4--|
A-3-3-3-3-3-3--3--5-5--2-2--2--2-2-2-2-2-2-2-2-2-2-2--|
E-----------------------------------------------------|


e-----------------------------|------------------------------|
B-----------------------------|------------------------------|
G-----------------------------|------------------------------|
D-----------------------------|------------------------------|
A---7-7------7-5-7--7---------|-----7-7-----7-5-7--7---------|
E-------0-0-----------0-3-0-5-|--------0-0----------0-3-0-5--|

If what you know is who you are then she's everything
e---------------------------|-----------------------------|
B---------------------------|-----------------------------|
G---9-9-9-9-----------------|----------------9-9-9-9-9----|
D---9-9-9-9--5-7-7-7-7-7--5-|--7-7-7-7-7--5--9-9-9-9-9-7--|
A---7-7-7-7--5-7-7-7-7-7--5-|--7-7-7-7-7--5--7-7-7-7-7-7--|
E------------3-5-5-5-5-5--3-|--5-5-5-5-5--3------------5--|x2

They said hey there girl tell me whatta ya do...
e-----------------------------|
B-----------------------------|
G-----------------------------|
D---9-----5-5------7----------|
A---9-----5-5------7----------|
E---7-----3-3------5----------|

That girl's a genius
e------------------------------|------------------------------|
B------------------------------|------------------------------|
G-5-5-5-5-5-5--5--7-7--7-7--4--|---9-9--9-9--9---9-9--9-9--9--|
D-5-5-5-5-5-5--5--7-7--7-7--4--|---9-9--9-9--9---9-9--9-9--9--|
A-3-3-3-3-3-5--3--5-5--5-5--2--|---7-7--7-7--7---7-7--7-7--7--|
E------------------------------|------------------------------|

e------------------------------|------------------------------|
B------------------------------|------------------------------|
G-5-5-5-5-5-5--5--7-7--4-4--4--|---9-9--9-9--9---9-9--9-9--9--|
D-5-5-5-5-5-5--5--7-7--4-4--4--|---9-9--9-9--9---9-9--9-9--9--|
A-3-3-3-3-3-5--3--5-5--2-2--2--|---7-7--7-7--7---7-7--7-7--7--|
E------------------------------|------------------------------|

e------------------------------|------------------------------|
B------------------------------|------------------------------|
G-5-5-5-5-5-5--5--7-7--7-7--4--|---9-9--9-9--9---9-9--9-9--9--|
D-5-5-5-5-5-5--5--7-7--7-7--4--|---9-9--9-9--9---9-9--9-9--9--|
A-3-3-3-3-3-5--3--5-5--5-5--2--|---7-7--7-7--7---7-7--7-7--7--|
E------------------------------|------------------------------|

I think she's serious

e-----------------------------------------------------|
B-----------------------------------------------------|
G-5-5-5-5-5-5--5--7-7--4-4--4--4-4-4-4-4-4-4-4-4-4-4--|
D-5-5-5-5-5-5--5--7-7--4-4--4--4-4-4-4-4-4-4-4-4-4-4--|
A-3-3-3-3-3-3--3--5-5--2-2--2--2-2-2-2-2-2-2-2-2-2-2--|
E-----------------------------------------------------|

solo

-------------------------------------------------------------------------|
---------------------------------------------------------------------16b-|
------------------------------------------------------------14b-12-------|
--20/21--21--21--21-21--21-21--21p19p17-19--21p19p17p19p17---------------|
-------------------------------------------------------------------------|
-------------------------------------------------------------------------|

---------17b--15--17b-15-17b-15-----------------------------------------19-|
--------------------------------17-15-17--15-------------------------------|
-16-14-16--------------------------------------16-14b-12-14b--14-12-14-----|
---------------------------------------------------------------------------|
---------------------------------------------------------------------------|
---------------------------------------------------------------------------|


                   That girl's a genius
e-----------------------------|------------------------------|
B--4--------------------------|------------------------------|
G-------------------mute------|--9-9-9-9-9--9---9-9--9-9--9--|
D-----5-5--7------------------|--9-9-9-9-9--9---9-9--9-9--9--|
A-----5-5--7------------------|--7-7-7-7-7--7---7-7--7-7--7--|
E-----3-3--5------------------|------------------------------|

e------------------------------|------------------------------|
B------------------------------|------------------------------|
G-5-5-5-5-5-5--5--7-7--4-4--4--|---9-9--9-9--9---9-9--9-9--9--|
D-5-5-5-5-5-5--5--7-7--4-4--4--|---9-9--9-9--9---9-9--9-9--9--|
A-3-3-3-3-3-5--3--5-5--2-2--2--|---7-7--7-7--7---7-7--7-7--7--|
E------------------------------|------------------------------|

e------------------------------|------------------------------|
B------------------------------|------------------------------|
G-5-5-5-5-5-5--5--7-7--7-7--4--|---9-9--9-9--9---9-9--9-9--9--|
D-5-5-5-5-5-5--5--7-7--7-7--4--|---9-9--9-9--9---9-9--9-9--9--|
A-3-3-3-3-3-5--3--5-5--5-5--2--|---7-7--7-7--7---7-7--7-7--7--|
E------------------------------|------------------------------|

e------------------------------|------------------------------|
B------------------------------|------------------------------|
G-5-5-5-5-5-5--5--7-7--4-4--4--|---9-9--9-9--9---9-9--9-9--9--|
D-5-5-5-5-5-5--5--7-7--4-4--4--|---9-9--9-9--9---9-9--9-9--9--|
A-3-3-3-3-3-5--3--5-5--2-2--2--|---7-7--7-7--7---7-7--7-7--7--|
E------------------------------|------------------------------|

e--------------------------------|    |---------------------------------------|
B--------------------------------|    |---------------------------------------|
G-5-5-5-5-5-5-5-5--7-7-7-7-7-7-7-|    |--4-4-4-4-4-4-4-4-4-4-4-4-4-4-4-4------|
D-5-5-5-5-5-5-5-5--7-7-7-7-7-7-7-|    |--4-4-4-4-4-4-4-4-4-4-4-4-4-4-4-4------|
A-3-3-3-3-3-5-5-3--5-5-5-5-5-5-5-|    |--2-2-2-2-2-2-2-2-2-2-2-2-2-2-2-2------|
E--------------------------------| x3    |------------------------------------|

e-----------------------------|
B-----------------------------|
G-----------------------------|
D-----------------------------|
A---7-7------7-5-7--7---------|
E-------0-0-----------0-3-0-5-|

            
            
Suggest correction
Creating personal tab
Creating personal tab
You can edit any tab online and save it as your Personal.

You can edit, replace or remove any tab part or add personal notes – all changes will be seen only by you.

Personal tabs can be accessed anytime from any device, even offline.
Learn more »
comments
print report bad tab
2 comments total.
-1 reply
tomj87 10 Aug 26, 2009 01:32 PM

ya, the solo is wrong. boo

0 reply
guitarvinnie 50 Dec 13, 2009 01:49 PM

the solo is an epic fail

guest
Wanna post a correction for this tab? Suggest correction