Oops, an error
Loading. Please wait.

Ready To Roll Tab

version 2
version 2

Whole song

1,557 views 1 this week
no commentswrite comment
1 2 3 4 5
please rate
add to favorites
launch autoscroll
font size
0
reset
how to read this tab
guitar tuner
Autoscroll
slow
fast
+/-
esc
set tempo
stop
Help us to improve Ultimate-Guitar.com Take our survey!
×
Contributor
Difficulty
Tuning
novice
C# G# C# F# A# D#
The First Riff Takes A Little Practice For Timing, But The Rest Is Simple, Please Enjoy!!!!

Tuning d#
       A#
       F#
       C#
       G#
       C#

Intro

------------------------------------|
------------------------------------|
------------------------------------|
2--------5-0--------------5--0------|
2--0-7-0-----0-5-0-7-0-5--5--0------|
2------------------------5--0-- x 4-|
      p  p     p   p

Pre-Verse

--------------------------------|
--------------------------------|
--------------------------------|
--------------------------------|
2--0-2-0-2-0---2--0-2-0-2-5-----|
2--0-2-0-2-0---2--0-2-0-2-5-----|
2--0-2-0-2-0-0-2--0-2-0-2-5-0---| x 3
             p              p
             m              m

--------------------------------|
--------------------------------|
--------------------------------|
2--------5-0--------------5--0--|
2--0-7-0-----0-5-0-7-0-5--5--0--|
2-------------------------5--0--| x 4
      p  p     p   p

Verse

--------------------------------|
--------------------------------|
--------------------------------|
2--2-2-2-2-2-2--2-2-2-2/5--0----|
2--2-2-2-2-2-2--2-2-2-2/5--0----|
2--2-2-2-2-2-2--2-2-2-2/5--0----| x 4
   p p p p p p  p p p p
   m m m m m m  m m m m

Pre-Chorus

-------------------------------------|
-------------------------------------|
-------------------------------------|
-5-5-5-5-5-5-5-5---------------------|
-3-3-3-3-3-3-3-3-5-5-5-5-5-5-5-5-----|
-----------------5-5-5-5-5-5-5-5 x 1-|

-------------------------------------|
-------------------------------------|
-------------------------------------|
-------------------------------------|
-5-5-5-5-5-5-5-5-5-5-5-5-5-5-5-5-----|
-7-7-7-7-7-7-7-7-7-7-7-7-7-7-7-7 x 1-|

-------------------------------------|
-------------------------------------|
-------------------------------------|
-5-5-5-5-5-5-5-5---------------------|
-3-3-3-3-3-3-3-3-5-5-5-5-5-5-5-5-----|
-----------------5-5-5-5-5-5-5-5 x 1-|

-------------------------------------|
-------------------------------------|
-7-7-7-7-7-7-7-7-7-7-7-7-7-7-7-7-----|
-7-7-7-7-7-7-7-7-7-7-7-7-7-7-7-7-----|
-5-5-5-5-5-5-5-5-5-5-5-5-5-5-5-5-----|
-------------------------------- x 1-|

Chorus

-------------------------------------|
-------------------------------------|
-----------------7-7-7-7-7-7-7-7-----|
-2-2-2-2-2-2-2-2-7-7-7-7-7-7-7-7-----|
-2-2-2-2-2-2-2-2-5-5-5-5-5-5-5-5-----|
-2-2-2-2-2-2-2-2---------------- x 1-|

-------------------------------------|
-------------------------------------|
-----------------7-7-7-7-7-7-7-7-----|
-5-5-5-5-5-5-5-5-7-7-7-7-7-7-7-7-----|
-5-5-5-5-5-5-5-5-5-5-5-5-5-5-5-5-----|
-5-5-5-5-5-5-5-5---------------- x 1-|

Repeat Chorus x 1

Then Just Repeat Sections As Needed

Bridge

--------------------------------|
--------------------------------|
--------------------------------|
-2-2----2-2----2-2----2-2-------|
-2-2----2-2----2-2----2-2-------|
-2-2----2-2----2-2----2-2-------|

Legend -

Pm = Palm Mute
P  = Pull Off

Hope this works for ya'll. The other tabs just didn't sound right !!!!
comments
We did not receive enough feedback on this tab! Please rate:
print report bad tab
1 2 3 4 5
I want to post or [tab]
guest
You may want to rate the tab now too:
select rating
Please do not post tabs as comments. Select "correction" instead!