Oops, an error
Loading. Please wait.

Feel The Shake Bass Tab

version 1
version 1

Whole song

Interactive

274 views 1 this week
no commentswrite comment
1 2 3 4 5
3 more votes to show rating
add to favorites
launch autoscroll
font size
0
reset
guitar tuner
Autoscroll
slow
fast
+/-
esc
set tempo
stop
Help us to improve Ultimate-Guitar.com Take our survey!
×
Author
#----------------------------------PLEASE NOTE---------------------------------#
#This file is the author's own work and represents their interpretation of the #
#song. You may only use this file for private study, scholarship, or research. #
#------------------------------------------------------------------------------
#http://www.jetboyrocks.com/

FEEL THE SHAKE (Bassline)




Transcribed by Gary Ramsey

 

 

Gtr I (E A D G) - 'Staff'


  Q=109
 4/4
  Gtr I
  W          W          W          W
|----------|----------|----------|------|
|----------|----------|----------|------|
|----------|----------|----------|------|
|----------|----------|----------|------|


  W          W          H    Q  E E   +W
|----------|----------|-------------|--------|
|----------|----------|-------------|--------|
|----------|----------|-------------|--------|
|----------|----------|-----------1-|-(1)----|


                  Q=116                                  Q=116
  +H     +H       Q  E E +E  E E E   +E  E E E E E E E   Q  E E +E  E E E
|---------------|------------------|-------------------|------------------|
|---------------|------------------|-------------------|------------------|
|---------------|-2--0-2-(2)-0-2---|-------------------|-2--0-2-(2)-0-2---|
|-(1)----(1)----|----------------0-|-(0)-0-0-0-0-0-0-0-|----------------0-|


                      Q=116
  +E  E E E E E E E   Q  E E +E  E E E   +E  E E E E E E E   Q  E E +E  E E E
|-------------------|------------------|-------------------|------------------|
|-------------------|------------------|-------------------|------------------|
|-------------------|-2--0-2-(2)-0-2---|-------------------|-2--0-2-(2)-0-2---|
|-(0)-0-0-0-0-0-0-0-|----------------0-|-(0)-0-0-0-0-0-0-0-|----------------0-|


  +E  E E E E E E E   E E E E E E E E   E E E E E E E E   E E E E E E E E
|-------------------|-----------------|-----------------|-----------------|
|-------------------|-----------------|-----------------|-----------------|
|---------------0-1-|-2-2-2-2-2-2-2-2-|-----------------|-2-2-2-2-2-2-2-2-|
|-(0)-0-0-0-0-0-----|-----------------|-0-0-0-0-0-0-0-0-|-----------------|


  E E E E E E E E   E E E E E E E E   E E E E E E E E   E E E E E E E E
|-----------------|-----------------|-----------------|-----------------|
|-----------------|-----------------|-----------------|-----------------|
|-----------------|-2-2-2-2-2-2-2-2-|-----------------|-2-2-2-2-2-2-2-2-|
|-0-0-0-0-0-0-0-0-|-----------------|-0-0-0-0-0-0-0-0-|-----------------|


  E E E E E E E E   Q  E E +E  E E E   +E  E E E E E E E   Q  E E +E  E E E
|-----------------|------------------|-------------------|------------------|
|-----------------|------------------|-------------------|------------------|
|-----------------|-2--0-2-(2)-0-2---|-------------------|-2--0-2-(2)-0-2---|
|-0-0-0-0-0-0-0-0-|----------------0-|-(0)-0-0-0-0-0-0-0-|----------------0-|


  +E  E E E E E E E   E E E E E E E E   E E E E E E E E   E E E E E E E E
|-------------------|-----------------|-----------------|-----------------|
|-------------------|-----------------|-----------------|-----------------|
|---------------0-1-|-2-2-2-2-2-2-2-2-|-----------------|-2-2-2-2-2-2-2-2-|
|-(0)-0-0-0-0-0-----|-----------------|-0-0-0-0-0-0-0-0-|-----------------|


  E E E E E E E E   E E E E E E E E   E E E E E E E E   E E E E E E E E
|-----------------|-----------------|-----------------|-----------------|
|-----------------|-----------------|-----------------|-----------------|
|-----------------|-2-2-2-2-2-2-2-2-|-----------------|-2-2-2-2-2-2-2-2-|
|-0-0-0-0-0-0-0-0-|-----------------|-0-0-0-0-0-0-0-0-|-----------------|


  E E E E E E E E   Q  E E +E  E E E   +E  E E E E E E E   Q  E E +E  E E E
|-----------------|------------------|-------------------|------------------|
|-----------------|------------------|-------------------|------------------|
|-----------------|-2--0-2-(2)-0-2---|-------------------|-2--0-2-(2)-0-2---|
|-0-0-0-0-0-0-0-0-|----------------0-|-(0)-0-0-0-0-0-0-0-|----------------0-|


  +E  E E E E E E E   Q  E E +E  E E E   +E  E E E E E E E   Q  E E +E  E E E
|-------------------|------------------|-------------------|------------------|
|-------------------|------------------|-------------------|------------------|
|-------------------|-2--0-2-(2)-0-2---|-------------------|-2--0-2-(2)-0-2---|
|-(0)-0-0-0-0-0-0-0-|----------------0-|-(0)-0-0-0-0-0-0-0-|----------------0-|


  +E  E E E Q  Q    Q  E E +E  E E E   +E  E E E Q  Q    Q  E E +E  E E E
|-----------------|------------------|-----------------|------------------|
|-----------------|------------------|-----------------|------------------|
|-----------2--0--|-2--0-2-(2)-0-2---|-----------2--0--|-2--0-2-(2)-0-2---|
|-(0)-0-0-0-------|----------------0-|-(0)-0-0-0-------|----------------0-|


  +E  E E E Q  Q    Q  E E +E  E E E   +E  E E E Q  Q    Q  E E +E  E E E
|-----------------|------------------|-----------------|------------------|
|-----------------|------------------|-----------------|------------------|
|-----------2--0--|-2--0-2-(2)-0-2---|-----------2--0--|-2--0-2-(2)-0-2---|
|-(0)-0-0-0-------|----------------0-|-(0)-0-0-0-------|----------------0-|


  +E  E E E Q  Q    E E E E E E E E   E E E E E E E E   E E E E E E E E
|-----------------|-----------------|-----------------|-----------------|
|-----------------|-----------------|-----------------|-----------------|
|-----------2--0--|-2-2-2-2-2-2-2-2-|-----------------|-2-2-2-2-2-2-2-2-|
|-(0)-0-0-0-------|-----------------|-0-0-0-0-0-0-0-0-|-----------------|


  E E E E E E E E   E E E E E E E E   E E E E E E E E   E E E E E E E E
|-----------------|-----------------|-----------------|-----------------|
|-----------------|-----------------|-----------------|-----------------|
|-----------------|-2-2-2-2-2-2-2-2-|-----------------|-2-2-2-2-2-2-2-2-|
|-0-0-0-0-0-0-0-0-|-----------------|-0-0-0-0-0-0-0-0-|-----------------|


  E E E E E E E E   Q  E E +E  E E E   +E  E E E E E E E   Q  E E +E  E E E
|-----------------|------------------|-------------------|------------------|
|-----------------|------------------|-------------------|------------------|
|-----------------|-2--0-2-(2)-0-2---|-------------------|-2--0-2-(2)-0-2---|
|-0-0-0-0-0-0-0-0-|----------------0-|-(0)-0-0-0-0-0-0-0-|----------------0-|


  +E  E E E E E E E   Q  E E +E  E E E   +E  E E E E E E E   Q  E E +E  E E E
|-------------------|------------------|-------------------|------------------|
|-------------------|------------------|-------------------|------------------|
|-------------------|-2--0-2-(2)-0-2---|-------------------|-2--0-2-(2)-0-2---|
|-(0)-0-0-0-0-0-0-0-|----------------0-|-(0)-0-0-0-0-0-0-0-|----------------0-|


  +E  E E E Q  Q    Q  E E +E  E E E   +E  E E E Q  Q    Q  E E +E  E E E
|-----------------|------------------|-----------------|------------------|
|-----------------|------------------|-----------------|------------------|
|-----------2--0--|-2--0-2-(2)-0-2---|-----------2--0--|-2--0-2-(2)-0-2---|
|-(0)-0-0-0-------|----------------0-|-(0)-0-0-0-------|----------------0-|


  +E  E E E Q  Q    Q  E E +E  E E E   +E  E E E Q  Q    Q  E E +E  E E E
|-----------------|------------------|-----------------|------------------|
|-----------------|------------------|-----------------|------------------|
|-----------2--0--|-2--0-2-(2)-0-2---|-----------2--0--|-2--0-2-(2)-0-2---|
|-(0)-0-0-0-------|----------------0-|-(0)-0-0-0-------|----------------0-|


  +E  E E E Q  Q    E E E E E E E E   E E E E E E E E   E E E E E E E E
|-----------------|-----------------|-----------------|-----------------|
|-----------------|-----------------|-----------------|-----------------|
|-----------2--0--|-2-2-0-2-2-0-2---|-----------------|-2-2-0-2-2-0-2---|
|-(0)-0-0-0-------|---------------0-|-0-0-0-0-0-0-0-0-|---------------0-|


  E E E E E E E E   E E E E E E E E   E E E E E E E E   E E E E E E E E
|-----------------|-----------------|-----------------|-----------------|
|-----------------|-----------------|-----------------|-----------------|
|-----------------|-2-2-0-2-2-0-2---|-----------------|-2-2-0-2-2-0-2---|
|-0-0-0-0-0-0-0-0-|---------------0-|-0-0-0-0-0-0-0-0-|---------------0-|


  E E E E E E E E   Q  E E +E  E E E   +E  E E E E E E E   Q  E E +E  E E E
|-----------------|------------------|-------------------|------------------|
|-----------------|------------------|-------------------|------------------|
|-----------------|-2--0-2-(2)-0-----|-------------------|-2--0-2-(2)-0-----|
|-0-0-0-0-0-0-0-0-|--------------3-0-|-(0)-0-0-0-0-0-0-0-|--------------3-0-|


  +E  E E E E E E E   Q  E E +E  E E E   +E  E E E E E E E   Q  E E E E E E
|-------------------|------------------|-------------------|----------------|
|-------------------|------------------|-------------------|----------------|
|-------------------|-2--0-2-(2)-0-----|-------------------|-2--0-2---------|
|-(0)-0-0-0-0-0-0-0-|--------------3-0-|-(0)-0-0-0-0-0-0-0-|----------0-0-0-|


  E E E E Q  Q    Q  E E +E  E E E   +E  E E E Q  Q    Q  E E +E  E E E
|---------------|------------------|-----------------|------------------|
|---------0-----|------------------|-----------------|------------------|
|------------0--|-2--0-2-(2)-0-2---|-----------2--0--|-2--0-2-(2)-0-2---|
|-0-0-0-0-------|----------------0-|-(0)-0-0-0-------|----------------0-|


  +E  E E E Q  Q    Q  E E +E  E E E   +E  E E E Q  Q    Q  E E +E  E E E
|-----------------|------------------|-----------------|------------------|
|-----------------|------------------|-----------------|------------------|
|-----------2--0--|-2--0-2-(2)-0-2---|-----------2--0--|-2--0-2-(2)-0-2---|
|-(0)-0-0-0-------|----------------0-|-(0)-0-0-0-------|----------------0-|


  +E  E E E Q  Q    Q  E E +E  E E E   Q  E E +E  E E E   Q  E E +E  E E E
|-----------------|------------------|------------------|------------------|
|-----------------|------------------|------------------|------------------|
|-----------2--0--|-2--0-2-(2)-2-2-2-|-2--0-2-(2)-2-2-2-|-2--0-2-(2)-2-2-2-|
|-(0)-0-0-0-------|------------------|------------------|------------------|


  Q  Q  Q  Q    Q  E E +E  E E E   +E  E E E Q  Q    Q  E E +E  E E E
|-------------|------------------|-----------------|------------------|
|-------0-----|------------------|-----------------|------------------|
|-0--------0--|-2--0-2-(2)-0-2---|-----------2--0--|-2--0-2-(2)-0-2---|
|----0--------|----------------0-|-(0)-0-0-0-------|----------------0-|


  +E  E E E Q  Q    Q  E E +E  E E E   +E  E E E Q  Q    Q  E E +E  E E E
|-----------------|------------------|-----------------|------------------|
|-----------------|------------------|-----------------|------------------|
|-----------2--0--|-2--0-2-(2)-0-2---|-----------2--0--|-2--0-2-(2)-0-2---|
|-(0)-0-0-0-------|----------------0-|-(0)-0-0-0-------|----------------0-|


  +H     +Q..   S
|--------------------*|
|--------------------*|
|--------------------*|
|-(0)----(0)---------*|




--------------------------------------------------------------------------------


Duration Legend
---------------
W - whole; H - half; Q - quarter; E - 8th; S - 16th; T - 32nd; X - 64th; a - acciaccatura
+ - note tied to previous; . - note dotted; .. - note double dotted
Uncapitalized letters represent notes that are staccato (1/2 duration)
Irregular groupings are notated above the duration line
Duration letters will always appear directly above the note/fret number it represents the
duration for.  Duration letters with no fret number below them represent rests.  Multi-
bar rests are notated in the form Wxn, where n is the number of bars to rest for.  Low
melody durations appear below the staff

Tablature Legend
----------------
 h   - hammer-on
 p   - pull-off
 b   - bend
 pb  - pre-bend
 r   - bend release (if no number after the r, then release immediately)
 /\  - slide into or out of (from/to "nowhere")
 s   - legato slide
 S   - shift slide
 - natural harmonic
[n]  - artificial harmonic
n(n) - tapped harmonic
 ~   - vibrato
 tr  - trill
 T   - tap
 TP  - trem. picking
 PM  - palm muting
\n/  - tremolo bar dip; n = amount to dip
 \n  - tremolo bar down
 n/  - tremolo bar up
/n\  - tremolo bar inverted dip
 =   - hold bend; also acts as connecting device for hammers/pulls
 <> - volume swell (louder/softer)
 x   - on rhythm slash represents muted slash
 o   - on rhythm slash represents single note slash

Misc Legend
-----------
 |  - bar
||  - double bar
||o - repeat start
o|| - repeat end
*|  - double bar (ending)
 :  - bar (freetime)
 $  - Segno
 &  - Coda
Tempo markers -  = BPM(8/16=s8/s16), where s8 = swing 8ths, s16 = swing 16ths



--------------------------------------------------------------------------------

** Generated using Power Tab Editor by Brad Larsen: The Official Power Tab Web Site
Suggest correction
Give kudos to tab author, rate the tab!
1 2 3 4 5
comments
print report bad tab
guest
You may want to rate the tab now too:
select rating
Wanna post a correction for this tab? Suggest correction