Oops, an error
Loading. Please wait.

A New Day Yesterday Tab

version 2
version 2

Whole song

Interactive

12,312 views 27 this week
1 commentread comment
1 2 3 4 5
x 7
add to favorites
launch autoscroll
font size
0
reset
how to read this tab
guitar tuner
×
Best way to learn
"A New Day Yesterday"
Autoscroll
slow
fast
+/-
esc
set tempo
stop
Tuning: Standard

The Riff!                        Walkdown:                                
                                     G        Em
e|-------------------------------|----------------------------|
B|-------------------------------|----------------------------| 
G|--------------------------0----|----------------------------| 
D|----------0-1-2-2--2-1-0-------|----------------------------| 
A|---0-1-2-----------------------|--3-2-0-2-------------------| 
E|-------------------------------|---------3-0----------------|

[Verse]
Em                 G  
My first and last time with you
Em              G 
And we had some fun
Em                        G
Went walkin' through the trees (yeah)
Em                    G
and then I kissed you once
A                 Em
Oh,      I want to see you soon
C            Em
But I wonder how
         G         A
It was a new day yesterday 

            C7        Em 

The Riff!                        Walkdown:                                
                                     G        Em
e|-------------------------------|----------------------------|
B|-------------------------------|----------------------------| 
G|--------------------------0----|----------------------------| 
D|----------0-1-2-2--2-1-0-------|----------------------------| 
A|---0-1-2-----------------------|--3-2-0-2-------------------| 
E|-------------------------------|---------3-0----------------|


but it's an old day now

[Verse]
Em                 G
Spent a long time lookin'
Em               G
for a game to play
Em                   G
My luck should be so bad
Em                G
to turn out this way
A            Em
I         had to leave today
C                      Em
just when I thought I found you
         G        A
It was a new day yesterday

            C7       Em  

The Riff!                        Walkdown:                                
                                     G        Em
e|-------------------------------|----------------------------|
B|-------------------------------|----------------------------| 
G|--------------------------0----|----------------------------| 
D|----------0-1-2-2--2-1-0-------|----------------------------| 
A|---0-1-2-----------------------|--3-2-0-2-------------------| 
E|-------------------------------|---------3-0----------------|


but it's an old day now
Suggest correction
comments
print report bad tab
1 comment total.
0 reply
KongKalsium 149 Nov 14, 2015 02:19 AM, edited at 07:22 am

I believe the first riff is played more like this:

E-----------------------------!
B-----------------------------!
G-----------------------------!
D----------0-1-2--(2)-2p0--5~~!
A---0-1-2----------------2----!
E-----------------------------!

I also feel like the Em-G really shouldn't be there in the beginning of the verses. They don't sound right, and the band plays the riff over them, not chords.

guest
You may want to rate the tab now too:
select rating
Wanna post a correction for this tab? Suggest correction