Oops, an error
Loading. Please wait.

Acres Wild Bass Tab

version 1
version 1

Whole song

Interactive

1,131 views 1 this week
no commentswrite comment
1 2 3 4 5
please rate
add to favorites
launch autoscroll
font size
0
reset
guitar tuner
Tab Pro tools
  • play this tab
  • loop segment
  • change instrument
  • show fretboard
  • metronome
×
Best way to learn
"Acres Wild"
Autoscroll
slow
fast
+/-
esc
set tempo
stop

Artist/Band: Jethro Tull
Song: Acres Wild
Album: Heavy Horses (Copyright ©1978)
E-Mail: LeD ZePPeLiN 054 @ aol.com


Intro 
                        
             w          h        h          q    e  e  e  e  q      h        h
G---|--------R--------|-R-----------------|-----------------------|-R-------------
D-4:|--------E--------|-E-----------------|-----------------------|-S-------------
A-4:|--------S--------|-S--------0--------|-2----2--0-----0--0----|-E--------0----
E---|--------T--------|-T-----------------|------------3----------|-T-------------

                            TIE
       q    e  e  q    e  e=====h         h          e  e  e  e  e  e  q      h
G----|-----------------------|---------------------|------------------------|-R---
D----|-----------------------|---------------------|------------------------|-E---
A----|-0----4--0--2----2--2--|-(2)--------0--------|-0--2--0--------0--2----|-S---
E----|-----------------------|---------------------|----------3--3----------|-T---

                                   TIE
      h          q    q    q    q=======h         h          e  e  e  e  e  e  q
G--------------|---------------------|---------------------|----------------------
D--------------|---------------------|---------------------|----------------------
A-----0--------|------2---------0----|-(0)--------0--------|-0--2--0--------0--2--
E--------------|-3---------3---------|---------------------|----------3--3--------
                                                                                    
                                              TIE                                 
     h        h          q    e  e  q    e  e=====h         h          e  e  e  e
G--|-R-----------------|-----------------------|---------------------|------------
D--|-E-----------------|-----------------------|---------------------|------------
A--|-S--------0--------|-0----4--0--2----2--2--|-(2)--------0--------|-0--2--0----
E--|-T-----------------|-----------------------|---------------------|----------3-

                                                      
  e  e  q      h        h          q    q    q    q             
G------------|-R-----------------|---------------------||
D------------|-E-----------------|---------------------||
A----0--2----|-S--------0--------|------2---------0----||
E-3----------|-T-----------------|-3---------3---------||

Pre-Verse

      |------3------|  
             w          e  e  e  e  e  e  e  e    h        h          e  e  e  e
G---|--------R--------|-------------------------|----------2--------|------------
D-4:|--------E--------|-------------------------|-------------------|------------
A-4:|--------S--------|-2--3--2-----3--2--2-----|-0-----------------|-0--2--0----
E---|--------T--------|----------3-----------3--|-------------------|----------3-

                                    
  e  e  e  e    h        h          e  e  e  e  e  e  e  e
G-------------|----------2--------|-------------------------||
D-------------|-------------------|-------------------------||
A-------2-----|-0-----------------|-2--3--2-----3--2--2-----||
E-3--3-----3--|-------------------|----------3-----------3--||
                                   Bass Fill 1 substitutes
                                   3rd time

Verse

      |------2------|                         TIE 
             w            e  Q      Q      q=======h         q    q      h        
G---|--------R--------||--R---------------------|------------2---------|---------
D-4:|--------E--------||*-E--0------------------|----------------------|---------
A-4:|--------S--------||*-S---------3------2----|-(2)------------------|-0-------
E---|--------T--------||--T---------------------|-----------------0----|---------
     Bass Fill 2 subs.     
     3rd Verse
                                    7x 1st Verse
  e  e  e  e    q    q    h         3x 2nd and 3rd Verses         
G-------------|---------------------||
D----2--0--2--|-3---------3--------*||
A-0-----------|------3-------------*||
E-------------|---------------------||




Chorus

                          TIE                               TIE
      e  Q      Q      q=======h         Q      e    q    q=====Q       e    q
G---|-R---------------------|------------2---------|-----------------------|----
D-4:|-E--0------------------|----------------------|-3----3----(3)---------|-3--
A-4:|-S---------3------2----|-(2)---------------3--|--------------------3--|----
E---|-T---------------------|----------------------|-----------------------|----

                           TIE                                         TIE
   q    e  e  q      H=============e   e    q    H              q    q=====q
G------------------|----------------------|-------------------|-----------------
D--3---------------|----------------------|-------------------|-3----3----(3)---
A------------------|-3------------(3)-----|-3----3------------|-----------------
E-------1--3--1----|-------------------3--|-------------------|----------------- 


    e    q    q    e  e  q      h        h          e  e  e  e  e  e  e  e    q
G------|----------------------|----------2--------|-------------------------|---
D------|-3----3---------------|-------------------|-------------------------|-3-
A---3--|----------------------|-0-----------------|-0--2--0-----------2-----|---
E------|-----------1--3--1----|-------------------|----------3--3--3-----3--|---

      TIE                                         TIE  
    q=====Q       e    q    q    e  e  q      H=========e   e    q    h        e
G--------------------|----------------------|------------------|----------------
D---3----(3)---------|-3----3---------------|------------------|---------------0
A-----------------3--|----------------------|-3--------(3)-----|-3----3---------
E--------------------|-----------1--3--1----|---------------3--|----------------

                        TIE                                      TIE
   e    q    h        q======w                  H            q==========H
G-----|---------------0----|-0----------------|-------------------|-------------
D--2--|-3----3-------------|------------------|-2------------0----|-6:-(0)------
A-----|--------------------|------------------|-------------------|-4:----------
E-----|--------------------|------------------|-------------------|-------------

          TIE
        q=====H
G-------------R--------||
D------(0)----E--------||
A-------------S--------||
E-------------T--------||



Outro

      
      e  e  e  e  e  e  q      h        h
G---|-R--0--------0----------|-R-----------------|
D-4:|-E-----4--0-----4--0----|-E-----------------|
A-4:|-S----------------------|-S--------0--------|
E---|-T----------------------|-T-----------------|



Bass Fill 1                               

      e  e  e  e  e  e  q    q    q            
G---|----------------------------------|  
D-6:|------------------------0----0----|
A-4:|-2--3--2-----3--2--2--------------|  
E---|----------3-----------------------|


Bass Fill 2

      h        e  e  e  e    q    q    h
G---|----------------------|--------------------|
D-4:|-------------2--0--2--|-3---------3--------|
A-4:|-0--------0-----------|------3-------------|
E---|----------------------|--------------------|
  



             ==================================================================
             =====                     Created By:                        =====
             =====                 The Bass Tablature                     =====
             =====                    Easy  Creator                       =====
             ==================================================================
comments
We did not receive enough feedback on this tab! Please rate:
print report bad tab
1 2 3 4 5
I want to post or [tab]
guest
You may want to rate the tab now too:
select rating
Please do not post tabs as comments. Select "correction" instead!